Cifra Club

You Are The One

a-ha

Cifrado: Principal (guitarra y guitarra eléctrica)
tono: C
Intro: Dm  G  Am

E|---------------------------------------------|
B|---------------------------------------------|
G|-10-9----7-------------10-9----7-7-----------|  (2x)
D|------10----10-9------------10-----10-9------|
A|-----------------10-7-------------------10-7-|
E|---------------------------------------------|

D          Bm          G       Em
You are the one who has done me
D         Bm            G   A
Guess you knew from the start
 D     Bm               G         Em
I call again, but there's no one in
C           Am          Bb         G
Don't know where, with whom you've been
   C  Am   Bm   E
But I   do    love  you
Am         Bm   Bb Am
Anyway you want me to


E|---------------------------------------------|
B|---------------------------------------------|
G|-10-9----7-------------10-9----7-7-----------|  (2x)
D|------10----10-9------------10-----10-9------|
A|-----------------10-7-------------------10-7-|
E|---------------------------------------------|

D          Bm            G           Em
You are the one...now the state I'm in!
D       Bm         G    A
Catching you was so hard
D           Bm         G        Em
I fought for you, did you let me win!?
C         Am          Bb
Don't even care, don't care
      G
Where I've been

   C  Am   Bm   E
But I   do    love  you
Am         Bm   Bb Am
Anyway you want me to


Instrumental:

  D  Bm  G
E|-----------------|
B|-----------------|
G|-7-7-7---7---7-9-|    (3x)
D|-------9---9-----|
A|-----------------|
E|-----------------|
  Em
E|-----------------|
B|--7-8-10-7-------|
G|-----------7-----|
D|-------------10--|
A|-----------------|
E|-----------------|
  D  Bm  G
E|-----------------|
B|-----------------|
G|-7-7-7---7---7-9-|   (3x)
D|-------9---9-----|
A|-----------------|
E|-----------------|
  Em  D  Bm  A#  A
E|-----------------10-|
B|-7-8-10-7-----------|
G|----------7----7----|
D|------------10------|
A|--------------------|
E|--------------------|

(Intro)

          G7        Em
I've done all I can do
        C                        Am
All the letters...I've sent through
       F           G7               C
Put my life in the palms of your hands
      Am
Maybe now you can see
          F7
That it's got to be me

But if you leave me

F/G        C       A
I'll understand, yeah
      F7        F/G        A
If you leave me, I'll understand
D           Bm          G       Em
You are the one who has done me
D         Bm            G     A
Guess you knew from the start
D          Bm                 G         Em
I call your friends, but there's no one in
D        Bm        G     A
Catching you is so hard
           D   Bm  G   Em
You are the one!
Composición de Magne Furuholmen / Pål Waaktaar
Colaboración y revisión:
1.126 vistas
    • ½ Tono
    • A
    • Bb
    • B
    • C
    • Db
    • D
    • Eb
    • E
    • F
    • F#
    • G
    • Ab
  • Agregar a la lista

    0 comentarios

    Ver todos los comentarios

    ¿Lograste tocar?

    17 Tocaron 1 Aún no

    ¡Graba un video tocando You Are The One y envíanoslo!

    00:00 / 00:00
    Outros vídeos desta música
    Repetir Calidad Automático
    Outros vídeos desta música
    00:00 / 00:00
    Automático
    OK