Cifra Club

3 Libras

A Perfect Circle

Cifrado: Principal (guitarra y guitarra eléctrica)
Selo Cifra Club: esta cifra foi revisada para atender aos critérios oficiais da nossa Equipe de Qualidade.
tono: D (forma dos acordes no tom de C) Capotraste na 2ª casa
Afinação: D B G D A E

[Intro] G2  B2  G2  D2  B2
        G2  B2  G2  D2  B2  C2  C7Msus2

[Tab – intro]

   G2                      B2      G2              D2      B2
E|---------------------------------------------------------------|
B|---------------------------------------------------------------|
G|-2-----2-2-----2-2-----2-6-----6-2-----2-2-----2-9-----9-6----6|
D|---0-------0-------0-------0-------0-------0-------0-------0---|
A|---------------------------------------------------------------|
E|-3---3---3---3---3---3---7---7---3---3---3---3---10--10--7---7-|

   G2                      B2      G2              D2      B2
E|---------------------------------------------------------------|
B|---------------------------------------------------------------|
G|-2-----2-2-----2-2-----2-6-----6-2-----2-2-----2-9-----9-6----6|
D|---0-------0-------0-------0-------0-------0-------0-------0---|
A|---------------------------------------------------------------|
E|-3---3---3---3---3---3---7---7---3---3---3---3---10--10--7---7-|

   C2                      C7Msus2
E|-------------------------0-|
B|-------------------------0-|
G|-7-----7-7-----7-7-----7-7-|
D|---0-------0-------0-----0-|
A|-------------------------x-|
E|-8---8---8---8---8---8---8-|

[Primeira Parte]

G2    D5        A2     F6
Threw   you the obvious
        G2    D5        A2      F6
And you flew    with it on your back
  Gsus2 D5        Asus2 f6
A name    in your recollection
G2    D5        A2     F B2
Down    among a million same

[Tab – primeira parte]

   G2      D5      A2       F6
E|----------------------------------|
B|----------------------------------|
G|-2-----2-2-----2-4-----4--5-----5-|
D|---0-------0-------0--------0-----|
A|---------5---5--------------------|
E|-3---3-----------5---5----1---1---|

   G2      D5      A2       F6
E|----------------------------------|
B|----------------------------------|
G|-2-----2-2-----2-4-----4--5-----5-|
D|---0-------0-------0--------0-----|
A|---------5---5--------------------|
E|-3---3-----------5---5----1---1---|

   G2      D5      A2       F6
E|----------------------------------|
B|----------------------------------|
G|-2-----2-2-----2-4-----4--5-----5-|
D|---0-------0-------0--------0-----|
A|---------5---5--------------------|
E|-3---3-----------5---5----1---1---|

   G2      D5      A2       F6
E|------------------------------------------|
B|------------------------------------------|
G|-2-----2-2-----2-4-----4--5-----5-6-----6-|
D|---0-------0-------0--------0-------0-----|
A|---------5---5----------------------------|
E|-3---3-----------5---5----1---1---7---7---|

[Segunda Parte]

G2
Difficult not to feel a little bit
D2     B2
   Disappointed and passed over
       G2
When I look right through
D2            B2              C2
   To see you naked but oblivious
C7Msus2
   And you don't   see    me

[Tab – Segunda Parte]

   G2                      D2        B2
E|---------------------------------------------------------------|
B|---------------------------------------------------0-----------|
G|-2-----2-2-----2-2-----2-9-------9-6-----6-6-----6-6-----6-----|
D|---0-------0-------0--------0--------0-------0-------0---------|
A|---------------------------------------------------------------|
E|-3---3---3---3---3---3---10---10---7---7---7---7---7---7-------|

           G2                     D2        B2
E|-----------------------------------------------------------|
B|-------------------------0---------------------------------|
G|-6-----6-2-----2-2-----2-2-----2-9-------9-6-----6-6-----6-|
D|---0-------0-------0-------0--------0--------0-------0-----|
A|-----------------------------------------------------------|
E|-7---7---3---3---3---3---3---3---10---10---7---7---7---7---|

   C2      C7Msus2
E|-------------------|
B|---------0---------|
G|-7-----7-7-----7---|
D|---0-------0-------|
A|-------------------|
E|-8---8---8---8---8-|

[Terceira Parte]

      G2    D5        A2    F6
But I threw   you the obvious
        G2    D5          A2     F6
Just to see    if there's more behind

G2    D5    A2     F6
The eyes   of a fallen angel
G2    D5    A2    F6 B2
Eyes   of a tragedy

[Tab – Terceira parte]

   G2      D5      A2       F6
E|----------------------------------|
B|----------------------------------|
G|-2-----2-2-----2-4-----4--5-----5-|
D|---0-------0-------0--------0-----|
A|---------5---5--------------------|
E|-3---3-----------5---5----1---1---|

   G2      D5      A2       F6
E|----------------------------------|
B|----------------------------------|
G|-2-----2-2-----2-4-----4--5-----5-|
D|---0-------0-------0--------0-----|
A|---------5---5--------------------|
E|-3---3-----------5---5----1---1---|

   G2      D5      A2       F6
E|----------------------------------|
B|----------------------------------|
G|-2-----2-2-----2-4-----4--5-----5-|
D|---0-------0-------0--------0-----|
A|---------5---5--------------------|
E|-3---3-----------5---5----1---1---|

   G2      D5      A2       F6
E|------------------------------------------|
B|------------------------------------------|
G|-2-----2-2-----2-4-----4--5-----5-6-----6-|
D|---0-------0-------0--------0-------0-----|
A|---------5---5----------------------------|
E|-3---3-----------5---5----1---1---7---7---|

[Quarta Parte]

G2
Here I am expecting just a little bit
D2     B2
   Too much from the wounded
      G2
But I see, see through it all
D2    B2              C2
  See through and see you 

[Tab – Quarta parte]

   G2                      D2        B2
E|---------------------------------------------------------------|
B|---------------------------------------------------0-----------|
G|-2-----2-2-----2-2-----2-9-------9-6-----6-6-----6-6-----6-----|
D|---0-------0-------0--------0--------0-------0-------0---------|
A|---------------------------------------------------------------|
E|-3---3---3---3---3---3---10---10---7---7---7---7---7---7-------|

                   G2              D2        B2
E|-----------------------------------------------------------|
B|-------------------------0---------------------------------|
G|-6-----6-2-----2-2-----2-2-----2-9-------9-6-----6-6-----6-|
D|---0-------0-------0-------0--------0--------0-------0-----|
A|-----------------------------------------------------------|
E|-7---7---3---3---3---3---3---3---10---10---7---7---7---7---|

   C2
E|-----------------|
B|-----------------|
G|-7-----7-7-----7-|
D|---0-------0-----|
A|-----------------|
E|-8---8---8---8---|

[Refrão]

         D5            Bb5 Eb5
'Cause I threw you the obvious
   D5        Bb5     Eb5
To see what occurs behind
    D5        Bb5    Eb5
The eyes of a fallen angel
D5        Bb5  Eb5
Eyes of a tragedy

[Tab – refrão]

   D5                  Bb5     Eb5
E|-----------------------------------------|
B|-----------------------------------------|
G|-7-7-7-7-7-7-7-7-7-7---------8-8-8-8-8-8-|
D|-7-7-7-7-7-7-7-7-7-7-8-8-8-8-8-8-8-8-8-8-|
A|-5-5-5-5-5-5-5-5-5-5-8-8-8-8-6-6-6-6-6-6-|
E|---------------------6-6-6-6-------------|
   ↓ ↓ ↑ ↓ ↑ ↓ ↓ ↑ ↓ ↑  ↓ ↓ ↑ ↓ ↑ ↓ ↓ ↑ ↓ ↑

   D5                  Bb5     Eb5
E|-----------------------------------------|
B|-----------------------------------------|
G|-7-7-7-7-7-7-7-7-7-7---------8-8-8-8-8-8-|
D|-7-7-7-7-7-7-7-7-7-7-8-8-8-8-8-8-8-8-8-8-|
A|-5-5-5-5-5-5-5-5-5-5-8-8-8-8-6-6-6-6-6-6-|
E|---------------------6-6-6-6-------------|
   ↓ ↓ ↑ ↓ ↑ ↓ ↓ ↑ ↓ ↑  ↓ ↓ ↑ ↓ ↑ ↓ ↓ ↑ ↓ ↑

   D5                  Bb5     Eb5
E|-----------------------------------------|
B|-----------------------------------------|
G|-7-7-7-7-7-7-7-7-7-7---------8-8-8-8-8-8-|
D|-7-7-7-7-7-7-7-7-7-7-8-8-8-8-8-8-8-8-8-8-|
A|-5-5-5-5-5-5-5-5-5-5-8-8-8-8-6-6-6-6-6-6-|
E|---------------------6-6-6-6-------------|
   ↓ ↓ ↑ ↓ ↑ ↓ ↓ ↑ ↓ ↑  ↓ ↓ ↑ ↓ ↑ ↓ ↓ ↑ ↓ ↑

   D5                  Bb5     Eb5
E|-----------------------------------------|
B|-----------------------------------------|
G|-7-7-7-7-7-7-7-7-7-7---------8-8-8-8-8-8-|
D|-7-7-7-7-7-7-7-7-7-7-8-8-8-8-8-8-8-8-8-8-|
A|-5-5-5-5-5-5-5-5-5-5-8-8-8-8-6-6-6-6-6-6-|
E|---------------------6-6-6-6-------------|
   ↓ ↓ ↑ ↓ ↑ ↓ ↓ ↑ ↓ ↑  ↓ ↓ ↑ ↓ ↑ ↓ ↓ ↑ ↓ ↑

[Parte 5]

    G2
Oh, well
B2     G2
   Oh, well
D2    B2        G2
     Apparently nothing
 B2        G2         D2    B2    C2
Apparently nothing at all
 
[Tab – Quinta parte]

   G2                      B2      G2              D2      B2
E|---------------------------------------------------------------|
B|---------------------------------------------------------------|
G|-2-----2-2-----2-2-----2-6-----6-2-----2-2-----2-9-----9-6----6|
D|---0-------0-------0-------0-------0-------0-------0-------0---|
A|---------------------------------------------------------------|
E|-3---3---3---3---3---3---7---7---3---3---3---3---10--10--7---7-|

   G2                      B2      G2              D2      B2
E|---------------------------------------------------------------|
B|---------------------------------------------------------------|
G|-2-----2-2-----2-2-----2-6-----6-2-----2-2-----2-9-----9-6----6|
D|---0-------0-------0-------0-------0-------0-------0-------0---|
A|---------------------------------------------------------------|
E|-3---3---3---3---3---3---7---7---3---3---3---3---10--10--7---7-|

   C2
E|---------------------------------|
B|---------------------------------|
G|-7-----7-7-----7-7---------------|
D|---0-------0-------0-------------|
A|---------------------------------|
E|-8---8---8---8---8---5/7-7-7-7/5-|

[Sexta Parte]

G5                               A5
  You don't, you don't, you don't see me
B5
  You don't, you don't, you don't see me
G5                                A5
   You don't, you don't, you don't see me
B5
   You don't, you don't, you don't see me
G5
You don't see me
B5
You don't
G5       A5
You don't
B5                     C2
   You don't see me at all

[Tab – Sexta Parte]
[2ª Guitarra]

E|--------------------------------------------------------------|
B|--------------------------------------------------------------|
G|--------------------------------------------------------------|
D|--------------------------------------------------------------|
A|---------------------------------------------5~/9-9-9-9/12~12-|
E|-5-5-5-5/7-7/9-9-9-9-5/7/5-5-5-5/7-7/9-9-9-9------------------|

                            C2
E|--------------------------0-|
B|--------------------------3-|
G|--------------------------5-|
D|--------------------------2-|
A|--------------------------3-|
E|-10-9~5/7/5-5-5-5/7/5-5-3---|
Otros videos de esta canción
    4.586 exhibiciones
      • ½ Tono
      • A
      • Bb
      • B
      • C
      • Db
      • D
      • Eb
      • E
      • F
      • F#
      • G
      • Ab
    • Agregar a la lista

    Afinação da cifra

    Afinador online

      Ops (: Contenido disponible solo en portugués.
      OK