Cifra Club

Weak And Powerless

A Perfect Circle

Cifrado: Principal (guitarra y guitarra eléctrica)
Selo Cifra Club: esta cifra foi revisada para atender aos critérios oficiais da nossa Equipe de Qualidade.
tono: D
Intro:
E|----------------------------------------------------------------
B|----------------------------------------------------------------
G|----------------------------------------------------------------   (2x)
D|---6------6-6---6-6-6--4-4------6-----6-6-6----6-6--------------
A|------4---4-4/5-4-4-4--2-2--------4---4-4-4/7--4-4--777---------
D|-4--------4-4---4-4-4--2-2---7--------7-7-7----7-7--777---------

(Guitarra 2)
E|------------7/4----7-4---7-4-------------------------
B|---5-5-5----5----------------------------------------
G|---6-6-6----6----------------------------------------
D|-----------------------------------------------------
A|-----------------------------------------------------
D|-----------------------------------------------------

Verso:

E|----------------------------------------------------------
B|----------------------------------------------------------
G|--------------------------5-------------------------------   (2x)
D|--4-5-5-5--------4-5-4------5-5-5--4-5-5------------------
A|--2/4-4-4-4/3-4--2/4-2/4----4-4-4--2/4-4--4/5-4-2/4-2--0--
D|----------------------------------------------------------

(Guitarra 2)
E|-----------------------------------------------------
B|---6666666666--------88888888-----------------------
G|-----------------------------------------------------
D|-----------------------------------------------------
A|-----------------------------------------------------
D|-----------------------------------------------------

Refrão:

E|------------------------------------------------------ 
B|------------------------------------------------------  
G|--------------------6-6-6--4-4-4----------------------
D|--------------------6-6-6--4-4-4----------------------
A|--4-4-4-4--7-7-7-7--4-4-4--2-2-2----------------------
D|--4-4-4-4--7-7-7-7------------------------------------

(Guitarra 2)
E|-------------------------------4--4-----------------
B|------2---2-------------------5--5------------------
G|----2---2---4---2-1-2--1-1---6--6---4---------------
D|--4----4-------------------------------4/6--4--3-------
A|-----------------------------------------------------
D|-----------------------------------------------------

Riff:
E|----------------------------------------------------
B|----------------------------------------------------
G|--------------------6------------6------------------
D|--4-6-6-6------4------4-6-6-6-----------------------
A|--2/4-4-4-4/3--2/4----2/4-4-4-4-----4/5-4-2/4-2--0--
D|----------------------------------------------------

(Guitarra 2)
E|-----------------------------------------------------
B|----66666666666666666666666666666666666666-----------
G|-----------------------------------------------------
D|-----------------------------------------------------
A|-----------------------------------------------------
D|-----------------------------------------------------

(o riff do primeiro verso repita ele na segunda estrófe)

Refrão:

E|----------------------------------------------------- 
B|-----------------------------------------------------
G|--------------------6-6-6--4-4-4---------------------
D|--------------------6-6-6--4-4-4---------------------
A|--4-4-4-4--7-7-7-7--4-4-4--2-2-2---------------------
D|--4-4-4-4--7-7-7-7-----------------------------------

E|-----------------------------------------------------
B|--------------5--------------------------------------
G|--6-----------6--------------------------------------
D|--6-------6---6--------------------------------------
A|--4-----4-----4--------------------------------------
D|-----------------------------------------------------

E|-----------------------------------------------------
B|-----------------------------------------------------
G|-----------------------------------------------------
D|-------------------9-9-9--6-6-6-6--9-9-9-9-----------
A|-------------------7-7-7--4-4-4-4--7-7-7-7-----------
D|--4-4-4-4-4-4-4----7-7-7--4-4-4-4--7-7-7-7-----------

(Guitarra 2)
E|--4----7----
B|--5----5----
G|--6----6----
D|------------
A|------------
D|------------

E|------------------------------------------------- 
B|------------------------------------------------- 
G|--6-6-6------4-4-4------------------------------- 
D|--6-6-6------4-4-4---4/5-4--2/4-2--0-------------
A|--4-4-4------2-2-2-------------------------------
D|-------------------------------------------------

(Guitarra 2)

E|----9---9---9---9---9---9---9---9----------------
B|---8---8---8---8---8---8---8---8-----------------
G|--9---9---9---9---9---9---9---9------------------
D|-------------------------------------------------
A|-------------------------------------------------
D|-------------------------------------------------

(Refrão)
Otros videos de esta canción
    453 exhibiciones
      • ½ Tono
      • A
      • Bb
      • B
      • C
      • Db
      • D
      • Eb
      • E
      • F
      • F#
      • G
      • Ab
    • Agregar a la lista

    Afinação da cifra

    Afinador online

      Ops (: Contenido disponible solo en portugués.
      OK