Cifra Club

Calmer Than You Are

A Static Lullaby

Tablatura: Principal (guitarra)
tono: A
        Tabbed by Sean Montgomery - Mr_Sean6661
        22 December 2006


        ----------------------------------------------------------------

Intro
        |-------------------------------------------------------||
        |---------88888888--------------------------------------||
        |-7777777777777777-10-9-7-9-10-9-10-9-7-9-10-9-7b-5-7---||
        |-0000000000000000------------------------------------7-||
        |-------------------------------------------------------||
        |-------------------------------------------------------||

        |-------------------------------------------------------||
        |---------88888888--------------------------------------||
        |-7777777777777777-10-9-7-9-10-9-10-9-7-9-10-9-7b-5-7---||
        |-0000000000000000------------------------------------7-||
        |-------------------------------------------------------||
        |-------------------------------------------------------||

Verse 1
        |-----------------------------------------------------------||
        |-----------------------------------------------------------||
        |-----------------------------------------------------------||
        |-----------------------------------------------------------||
        |-0-----------------------8----0------------5----3--7-------||
        |-0-----------------------8----0------------5----3--7-------||

          ticke me pink with laughter, backwards we wind up spinning

    |---------------------------------------------------------------------------------||
|-------------------------------------------------------------------------------------||
|-------------------------------------------------------------------------------------||
|-------------------------------------------------------------------------------------||
|-0-------------------------8--------------------------0-----------------5-3-7--------||
|-0-------------------------8--------------------------0-----------------5-3-7--------||

another shot of whiskey, another shot of whiskey, to train our feet to mo-ove

Pre Chorus
        |------------------------------------------------------------||
        |------------------------------------------------------------||
        |------------------------------------------------------------||
        |------------------------------------------------------------||
        |-11-------------11-----------------11----------------11-1/3-||
        |-11-------------11-----------------11----------------11-1/3-||

            we cant feel loved we cant feel free we cant feel at all

        |------------------------------------------------------------||
        |------------------------------------------------------------||
        |------------------------------------------------------------||
        |------------------------------------------------------------||
        |-11-------------11-----------------11----------------11-1/3-||
        |-11-------------11-----------------11----------------11-1/3-||

            we cant feel loved we cant feel free we cant feel at all

        |------------------------------------------------------------||
        |------------------------------------------------------------||
        |------------------------------------------------------------||
        |------------------------------------------------------------||
        |-11-------------11-----------------11----------------11-1/3-||
        |-11-------------11-----------------11----------------11-1/3-||

            we cant feel loved we cant feel free we cant feel at all

        |------------------------------------------------------------||
        |------------------------------------------------------------||
        |------------------------------------------------------------||
        |------------------------------------------------------------||
        |-11-------------11-----------------11----------------11-1-1-||
        |-11-------------11-----------------11----------------11-1-1-||

            we cant feel loved we cant feel free we cant feel at all

Chorus
        |---------------------------------------------|
        |---------------------------------------------|
        |---------------10-9-7-5-7-5------------------|
        |---------------------------------------------|
        |-555-777-8-----------------------333-777---0-|
        |-555-777-8-----------------------333-777---0-|

                   (were taking some time)we cant wait

---------------------------------------------------------------------------||
---8---6---5--6--8--6--5---------------------------------------------------||
--------------------------7---------------10-9-7-5-7-5---------------------||
---------------------------------------------------------------------------||
------------------------------555-777--8--------------------333--777-0-----||
------------------------------555-777--8--------------------333--777-0-----||

for  (were packing our bags) our bags  to--o  f-u-l-l well lose our selves

Intro
        |-------------------------------------------------------||
        |---------88888888--------------------------------------||
        |-7777777777777777-10-9-7-9-10-9-10-9-7-9-10-9-7b-5-7---||
        |-0000000000000000------------------------------------7-||
        |-------------------------------------------------------||
        |-------------------------------------------------------||

        |-------------------------------------------------------||
        |---------88888888--------------------------------------||
        |-7777777777777777-10-9-7-9-10-9-10-9-7-9-10-9-7b-5-7---||
        |-0000000000000000------------------------------------7-||
        |-------------------------------------------------------||
        |-------------------------------------------------------||

Verse 2
|---------------------------------------------------------------------||
|---------------------------------------------------------------------||
|---------------------------------------------------------------------||
|---------------------------------------------------------------------||
|---0-------------8-------0----5-3-2-0------------8----0--------5-3-2-||
|---0-------------8-------0----5-3-2-0------------8----0--------5-3-2-||

  we think and drink our coff--e--e- sit and watch the burning bridges

|--------------------------------------------------------------------------||
|--------------------------------------------------------------------------||
|--------------------------------------------------------------------------||
|--------------------------------------------------------------------------||
|-0----0---8-----------0----0---5--3--2-------0----0----8--------0-0-5-3-7-||
|-0----0---8-----------0----0---5--3--2-------0----0----8--------0-0-5-3-7-||

  roll me another one, roll me another one to train our minds to gro-o-v-e

Pre Chorus
        |------------------------------------------------------------||
        |------------------------------------------------------------||
        |------------------------------------------------------------||
        |------------------------------------------------------------||
        |-11-------------11-----------------11----------------11-1/3-||
        |-11-------------11-----------------11----------------11-1/3-||

            we cant feel loved we cant feel free we cant feel at all

        |------------------------------------------------------------||
        |------------------------------------------------------------||
        |------------------------------------------------------------||
        |------------------------------------------------------------||
        |-11-------------11-----------------11----------------11-1/3-||
        |-11-------------11-----------------11----------------11-1/3-||

            we cant feel loved we cant feel free we cant feel at all

        |------------------------------------------------------------||
        |------------------------------------------------------------||
        |------------------------------------------------------------||
        |------------------------------------------------------------||
        |-11-------------11-----------------11----------------11-1/3-||
        |-11-------------11-----------------11----------------11-1/3-||

            we cant feel loved we cant feel free we cant feel at all

        |------------------------------------------------------------||
        |------------------------------------------------------------||
        |------------------------------------------------------------||
        |------------------------------------------------------------||
        |-11-------------11-----------------11----------------11-1-1-||
        |-11-------------11-----------------11----------------11-1-1-||

            we cant feel loved we cant feel free we cant feel at all

Chorus
        |---------------------------------------------|
        |---------------------------------------------|
        |------------10-9-7-5-7-5---------------------|
        |---------------------------------------------|
        |-555-777-8-----------------------333-777---0-|
        |-555-777-8-----------------------333-777---0-|

                   (were taking some time)we cant wait

---------------------------------------------------------------------------|||--------------------||
----8--6--5--6--8--6--5----------------------------------------------------|||--------------------||
-------------------------7------------------10-9-7-5-7-5-------------------|||-10-9-7------10-9-7-||
---------------------------------------------------------------------------|||--------------------||
------------------------------555-777--8--------------------333--777-0-----|||--------------------||
------------------------------555-777--8--------------------333--777-0-----|||--------------------||

for  (were packing our bags) our bags  to--o  f-u-l-l well lose our selves

Bridge (for left guitar)
|------------------------------------------------12-------10-13-10--12-||
|--------------10-13-10-8-6-------8-6-------10-13--11-8-11--------10---||
|--10------7-10------------9-7-5-9------7-10---------------------------||
|-----8-5-8--------------------------8-8-------------------------------||
|----------------------------------------------------------------------||
|----------------------------------------------------------------------||

Pre Solo
|---------------------------------------------------------------------||
|---------------------------------------------------------------------||
|---------------------------------------------------------------------||
|-7777555588888888-7777555588888888-7777555588888888-7777555588888888-||
|-5555555588888888-5555555588888888-5555555588888888-5555555588888888-||
|-----555588888888-----555588888888-----555588888888-----555588888888-||

                                                                     sunsets
Solo
|-----------------------------------------------13-14-15-18-15-15/13-13---13--13-15b-15b-18-15-----------||
|--9b------------------13-14-15---------13-14-15------------------------15--15-----------------15-18-15--||
|-7--10-9-10-9-12-13-14--------14b-12-14-----------------------------------------------------------------||
|--------------------------------------------------------------------------------------------------------||
|--------------------------------------------------------------------------------------------------------||
|--------------------------------------------------------------------------------------------------------||

Intro
        |-------------------------------------------------------|||---------------||
|---------88888888--------------------------------------|||-----5h6p5/3-----------||
|-7777777777777777-10-9-7-9-10-9-10-9-7-9-10-9-7b-5-7---|||--5-7------------------||
|-0000000000000000------------------------------------7-|||-7---------------------||
|-------------------------------------------------------|||-----------------------||
|-------------------------------------------------------|||-----------------------||

Chorus
        |---------------------------------------------|
        |---------------------------------------------|
        |---------------10-9-7-5-7-5------------------|
        |---------------------------------------------|
        |-555-777-8-----------------------333-777---0-|
        |-555-777-8-----------------------333-777---0-|

                  (were taking some time)we cant wait
    -----------------------------------------------------------------------------||
---8---6---5--6--8--6--5---------------------------------------------------------||
--------------------------7---------------10-9-7-5-7-5---------------------------||
---------------------------------------------------------------------------------||
------------------------------555-777--8--------------------333--777-0-----------||
------------------------------555-777--8--------------------333--777-0-----------||

for  (were packing our bags) our bags  to--o  f-u-l-l well lose our selves
Composição de A Static Lullaby
21 reproducciones
    • ½ Tono
    • A
    • Bb
    • B
    • C
    • Db
    • D
    • Eb
    • E
    • F
    • F#
    • G
    • Ab
  • Adicionar à lista

    0 comentarios

    Ver todos os comentários

    ¿Conseguiste tocar?

    0 Tocaram 0 Ainda não

    Grave um vídeo tocando Calmer Than You Are e nos envie!

    00:00 / 00:00
    outros vídeos desta música
    repetir qualidade Automático
    Outros vídeos desta música
    00:00 / 00:00
    Automático
    OK