Cifra Club

Nightmares Win 6-0

A Static Lullaby

Tab de bajo: Principal
...And Don't Forget To Breathe
Drop-D Tuning (DADG)
| /  slide up
| \  slide down
| h  hammer-on
| p  pull-off
| ~  vibrato
| +  harmonic
| x  Mute note
1st Verse: {0:44}
G-----------------------------------------------|
D-----------------------------------------------|
A------------------------------555---3----------|
D-0-3/8-0-3/8-0-3/8-0-3/8-0-333---333-3/7/11-11-|

{0:50}
G---------------------------------------------------|
D---------------------------------------------------|
A---------------------------------------------------|
D-000000000000000000000000000000000-33-3333-55-5555-|

{0:56}
G----------------------------------------|
D----------------------------------------|
A------------------------------555---333-|
D-0-3/8-0-3/8-0-3/8-0-3/8-0-333---333----|

{1:02}
G-----------------------------------------------|
D-----------------------------------------------|
A-----------------------------------------------|
D-0-3/8-0-3/8-12-3/8-12-3/8-333333333-555555555-|

1st Chorus: {1:08}
G-----------------------------------------------------|
D-----------------------------------------------------|
A-----------------------------------------------------|
D-888888888888-555555555555-888888888888-555555555555-|

{1:20}
G-----------------------------------------------------|
D-----------------------------------------------------|
A-----------------------------------------------------|
D-888888888888-555555555555-888888888888--00-00-00-00-|

{1:32}
G----------------------------------------------------|
D----------------------------------------------------|
A-12-13-12-10-12-10-8-7-8-10-8-10--------------------|
D----------------------------------0---0---0---0---0-|

2nd Verse: {1:41}
G-------------------------------------------------------------------------------|
D-------------------------------------------------------------------------------|
A-------------------5---------555----3----------1211/13-------------------------|
D-0-3/8-0-3/8-0-3/8---3/8-3-33---3-33-3/9-000000--------333333-555555-9/12-9/12-|

{1:53}
G-------------------------------------------------------------------------------|
D-------------------------------------------------------------------------------|
A-----------------------------555----3333---------------------------------------|
D-0-3/8-0-3/8-0-3/8-0-3/8-3-33---3-33----0-3/8-0-3/8-0-3/8-0-3/8-333333-5555555-|

2nd Chorus: {2:05}
G-----------------------------------------------------|
D-----------------------------------------------------|
A-----------------------------------------------------|
D-888888888888-555555555555-888888888888-555555555555-|

{2:17}
G------------------------------------------------------------------------------|
D------------------------------------------------------------------------------|
A------------------------------------------------------------------------------|
D-888888888888-555555555555-888888-10-10-10-10-10-10-3-333113-333113-333113-/0-|
Composición de A Static Lullaby
5 vistas

0 comentarios

Ver todos los comentarios

¿Lograste tocar?

0 Tocaron 0 Aún no

¡Graba un video tocando Nightmares Win 6-0 y envíanoslo!

00:00 / 00:00
Otros videos de esta canción
Repetir Calidad Automático
Otros videos de esta canción
00:00 / 00:00
Automático
OK