Cifra Club

The Shooting Star That Destroyed Us All

A Static Lullaby

Cifrado: Versão 4 (guitarra y guitarra eléctrica)
Já pensou em usar uma coleção de roupas do Cifra Club? Responda as perguntas abaixo e nos ajude nessa missão! →
tono: C
*Drop D Tuning*
e-mail *

Intro
e |-------------------------------------------------------------------|
B |-------------------------------------------------------------------|
G |----5-5-5-5-5-5-5-5---2-2-2-2-2-2-2-2---10-10-10-10-10-10-10-10----|
D |---3-3-3-3-3-3-3-3---0-0-0-0-0-0-0-0---7--7--7--7--7--7--7--7------|
A |-------------------------------------------------------------------|
D |-------------------------------------------------------------------|

e |----------------------------------|
B |----------------------------------|
G |----10-10-10-10-10-10-10-10--(x2)-|
D |---8--8--8--8--8--8--8--8---------|
A |----------------------------------|
D |----------------------------------|

Verse/1stChorus
e |---------------------|--------------------------------|
B |---------------------|--------------------------------|
G |----------------(x2)-|---------------------------(x2)-|
D |--3---0---7---8------|--3---0---7---5-3-8---7-5-------|
A |--3---0---7---8------|--3---0---7---5-3-8---7-5-------|
D |--3---0---7---8------|--3---0---7---5-3-8---7-5-------|

Riff1
e |--------------------------------|----------------------------------|
B |---5---3-----6--8--6--5---------|---333---------111-1-1------------|
G |-------------------------3-(x4)-|-------333-222------------(x4)----|
D |--------------------------------|----------------(palm mute 1st 2)-|
A |--------------------------------|----------------------------------|
D |--------------------------------|----------------------------------|

2nd Chorus
e |--------------------------------|------------|
B |--------------------------------|------------|
G |---------------------------(x2)-|---7-(hold)-|
D |--3---0---7---5-3-8---7-5-------|---7--------|
A |--3---0---7---5-3-8---7-5-------|---5--------|
D |--3---0---7---5-3-8---7-5-------|------------|

Bass then
Riff2
e |----------------------------------|
B |----------------------------------|
G |---7----------5---------77---(x8)-|
D |---7---0h2h3--5--0h2h3--77--------|
A |---5---0h2h3--3--0h2h3--55--------|
D |-------0h2h3-----0h2h3------------|

Verse2 (your eyes…)
e |------------------|-------------------------|
B |------------------|-------------------------|
G |-------------(x4)-|--------------------(x4)-|
D |----0--2--3-------|---5-7----5-3---2-3------|
A |----0--2--3-------|---5-7----5-3---2-3------|
D |----0--2--3-------|---5-7----5-3---2-3------|

e |------------------|------------------------------------|
B |------------------|------------------------------------|
G |-------------(x4)-|-------------------------------(x2)-|
D |----0--2--3-------|---0---9---0---9----0-2-0-5-3-------|
A |----0--2--3-------|---0---9---0---9----0-2-0-5-3-------|
D |----0--2--3-------|---0---9---0---9----0-2-0-5-3-------|

Intro x1
Chorus x1
Ending
e |-------------------------------5~-5~-5~-5~-5~-5~-5~-5~3--|
B |---5-6--5-6-5-6--5-6--5-6-5-6----------------------------|
G |---------------------------------------------------------|
D |---------------------------------------------------------|
A |---------------------------------------------------------|
D |---------------------------------------------------------|
Composición de A Static Lullaby
    • ½ Tono
    • A
    • Bb
    • B
    • C
    • Db
    • D
    • Eb
    • E
    • F
    • F#
    • G
    • Ab
  • Agregar a la lista

    0 comentarios

    Ver todos los comentarios

    ¿Lograste tocar?

    0 Tocaron 0 Aún no

    ¡Graba un video tocando The Shooting Star That Destroyed Us All y envíanoslo!

    00:00 / 00:00
    Outros vídeos desta música
    Repetir Calidad Automático
    Outros vídeos desta música
    00:00 / 00:00
    Automático
    OK