Cifra Club

The Shooting Star That Destroyed Us All

A Static Lullaby

Cifrado: Versão 2 (guitarra y guitarra eléctrica)
Já pensou em usar uma coleção de roupas do Cifra Club? Responda as perguntas abaixo e nos ajude nessa missão! →
tono: C
Refrão 1 [x2]

E |--------|---------|---------|----------|
B |--------|---------|---------|----------|
G |---5----|---------|----9----|----10----|
D |-----3--|----7----|------7--|-------8--|
A |--------|------5--|---------|----------|
D |--------|---------|---------|----------|


Refrão 2 [2x]

 
E |----------------------------------------|
B |----------------------------------------|
G |----------------------------------------|
D |----3----0----7----8--------------------|
A |----3----0----7----8--------------------|
D |----3----0----7----8--------------------|


Verso 1 [2x] (Let me walk on high wire of rusty nails...).


E |----------------------------------------|
B |----------------------------------------|
G |----------------------------------------|
D |----3----0----7----8--------------------|
A |----3----0----7----8--------------------|
D |----3----0----7----8--------------------|


Oitavada [4x]


E |----------------------------------------|
B |----------------------------------------|
G |--7--9----9--12-12--9---3---------------|
D |--x--x----x---x-x---x---x---------------|
A |--5--7----7--10-10--7---1---------------|
D |----------------------------------------|


Riff [4x]

E |----------------------------------------|
B |----------------------------------------|
G |--7-7-7-7--3-3-3-3--2-2-2-2--5555555----|
D |----------------------------------------|
A |----------------------------------------|
D |----------------------------------------|

Refrão 2 [2x]


E |----------------------------------------|
B |----------------------------------------|
G |----------------------------------------|
D |----3----0----7----8--------------------|
A |----3----0----7----8--------------------|
D |----3----0----7----8--------------------|


Parada (now's the time, now's the time)

E |--------10------------|----------|
B |------9---------------|----------|
G |----7-----------------|----------|
D |----------------------|--7-------|
A |----------------------|--5-------|
D |----------------------|----------|


Verso 2 [8x] (the more try i try...).
 


    Guitarra 1
E |-----------------------------------------|
B |-----------------------------------------|
G |-----------------------------------------|
D |--7--2-3--5--2-3--7-7--------------------|
A |--5--2-3--3--2-3--5-5--------------------|
D |-----2-3-----2-3-------------------------|
 
   Guitarra 2 entra na quinta vez da guitarra 1

E |-10--10-10-10-10-10-10-10----------------|
B |--9--9--9--9--9--9--9--9-----------------|
G |--7--7--7--7--7--7--7--7-----------------|
D |-----------------------------------------|
A |-----------------------------------------|
D |-----------------------------------------|


(Your eyes they shine...)

E |------------------------------------------------|
B |------------------------------------------------|
G |------------------------------------------------|
D |----0--2--3----0--2--3----0--2--3----0--2--3----|
A |----0--2--3----0--2--3----0--2--3----0--2--3----|
D |----0--2--3----0--2--3----0--2--3----0--2--3----|






(Your eyes they shine...).

guitarra 1

E |-----------------------------------------------|
B |-----------------------------------------------|
G |--9--10--9--10---14--10--14--17----------------|
D |--x--x---x--x-----x--x----x--x-----------------|
A |--7--8---7--8----12--8---12--15----------------|
D |-----------------------------------------------|


Guitarra 2 [4x]


E |------------------------------------------------|
B |------------------------------------------------|
G |------------------------------------------------|
D |----77777777777--2/3333--2/3333--2/33/7---------|
A |----77777777777--2/3333--2/3333--2/33/7---------|
D |----77777777777--2/3333--2/3333--2/33/7---------|




(Your eyes they shine...)

E |------------------------------------------------|
B |------------------------------------------------|
G |------------------------------------------------|
D |----0--2--3----0--2--3----0--2--3----0--2--3----|
A |----0--2--3----0--2--3----0--2--3----0--2--3----|
D |----0--2--3----0--2--3----0--2--3----0--2--3----|


(walking home street lights go out, walking home street lights go out)

E |------------------------------------------------|
B |------------------------------------------------|
G |------------------------------------------------|
D |----0--9--10---0--9--10-------------------------|
A |----0--7--8----0--7--8--------------------------|
D |----0----------0--------------------------------|



Refrão 1 [x1]

E |--------|---------|---------|----------|
B |--------|---------|---------|----------|
G |---5----|---------|----9----|----10----|
D |-----3--|----7----|------7--|-------8--|
A |--------|------5--|---------|----------|
D |--------|---------|---------|----------|



Refrão 2 [1x]


E |----------------------------------------|
B |----------------------------------------|
G |----------------------------------------|
D |----3----0----7----8--------------------|
A |----3----0----7----8--------------------|
D |----3----0----7----8--------------------|


Final guitarra 1

E |----------------------------------------|
B |----------------------------------------|
G |----------------------------------------|
D |----3----0----7----8--------------------|
A |----3----0----7----8--------------------|
D |----3----0----7----8--------------------|



Final guitarra 2

E |----------------------------55555--666-5-6-56--|
B |----5-6-5-6-5-6-5-6-5-6-5-6--------------------|
G |-----------------------------------------------|
D |-----------------------------------------------|
A |-----------------------------------------------|
D |-----------------------------------------------|



Fim
 
E |-----------------------------------------------|
B |--5-6-5-6-5-6-5-6-5-6-5-6-5-6-5-6-5-6-5-6------|
G |-----------------------------------------------|
D |-----------------------------------------------|
A |-----------------------------------------------|
D |-----------------------------------------------|
Composición de A Static Lullaby
Colaboración y revisión:
  • andre ferreira
3 vistas
    • ½ Tono
    • A
    • Bb
    • B
    • C
    • Db
    • D
    • Eb
    • E
    • F
    • F#
    • G
    • Ab
  • Agregar a la lista

    0 comentarios

    Ver todos los comentarios

    ¿Lograste tocar?

    0 Tocaron 0 Aún no

    ¡Graba un video tocando The Shooting Star That Destroyed Us All y envíanoslo!

    00:00 / 00:00
    Outros vídeos desta música
    Repetir Calidad Automático
    Outros vídeos desta música
    00:00 / 00:00
    Automático
    OK