Cifra Club

Come Over

Aaliyah

Cifrado: Principal (guitarra y guitarra eléctrica)
Selo Cifra Club: esta cifra foi revisada para atender aos critérios oficiais da nossa Equipe de Qualidade.
tono: Eb
RIP babygirl
E|-----------------------------------------------------------|
B|---9-8h9p8----9-8h9p8----9-8h9p8---------------------------|
G|-8----------8----------8---------8-------------------------|
D|-10---------10---------10----------------------------------|
A|-8----------8----------8-----------------------------------|
E|-8----------8----------8-----------------------------------|

E|---------------10--10--------------------------------------|
B|---9-8h9p8-----8---8---------------------------------------|
G|-8---------8---8---8---------------------------------------|
D|-10------------10------------------------------------------|
A|-8-------------8-------------------------------------------|
E|-8-------------8-------------------------------------------|

E|------------10---------------------------------------------|
B|---9-9h11---8---9------------------------------------------|
G|-8----------8---9------------------------------------------|
D|-10---------10--11-----------------------------------------|
A|-8----------8----------------------------------------------|
E|-8----------8----------------------------------------------|

E|---------------10--10--------------------------------------|
B|---9-8h9p8-----8---8---------------------------------------|
G|-8---------8---8---8---------------------------------------|
D|-10------------10------------------------------------------|
A|-8-------------8-------------------------------------------|
E|-8-------------8-------------------------------------------|

E|---------x-------------------------------------------------|
B|-6---6---4-------------------------------------------------|
G|-6---6---5-------------------------------------------------|
D|-6---8---5---3-5-6-6s8-------------------------------------|
A|-8---6---x-------------------------------------------------|
E|-6-------4-------------------------------------------------|
Otros videos de esta canción
11 exhibiciones
    • ½ Tono
    • A
    • Bb
    • B
    • C
    • Db
    • D
    • Eb
    • E
    • F
    • F#
    • G
    • Ab
  • Agregar a la lista

Afinación de cifrado

Afinador online

    OK