Cifra Club

One In A Million

Aaliyah

Cifrado: Principal (guitarra y guitarra eléctrica)
Selo Cifra Club: esta cifra foi revisada para atender aos critérios oficiais da nossa Equipe de Qualidade.
tono: B
    B5   A5   F#5  A5
E|---x----x----x----x---|
B|---x----x----x----x---|
G|---x----x----6----9---|
D|---4----2----4----7---|
A|---2----0----x----x---|
E|---x----x----x----x---|

Melody Riff 
    B5               A5
E|-----------------|-----------------|-----------------|-------------------|
B|-----------------|-----------------|--------5/7------|-------------------|
G|-----------------|-----------------|-----------------|-------------------|
D|--4--------------|-2---------------|-----------------|-------------------|
A|--2--------------|-0---------------|-----------------|-------------------|
E|-----------------|-----------------|-----------------|-------------------|

Breakdown Riff 
    F#5               A5
E|-----------------|-----------------|-----------------|-------------------|
B|-----------------|-----------------|-----------------|-------------------|
G|--6--------------|-9---------------|-----------------|-------------------|
D|--4--------------|-7---------------|-----------------|-------------------|
A|-----------------|-----------------|-----------------|-------------------|
E|-----------------|-----------------|-----------------|-------------------|

Intro:
Love it babe. Love it babe. Love it babe. Love it babe.

Verse 1:
Baby you don't know,what you do to me.
Between me and you, I feel a chemistry.
Won't let no one come and take your place.
Cause the love you give can't be replaced.
See no one else love me like you do.
That's why I don't mind to spend my life with you.
Wanna please you in anyway I can.
Wanna share my world don't you understand.
Otros videos de esta canción
38 exhibiciones
    • ½ Tono
    • A
    • Bb
    • B
    • C
    • Db
    • D
    • Eb
    • E
    • F
    • F#
    • G
    • Ab
  • Agregar a la lista

Afinación de cifrado

Afinador online

    OK