Cifra Club

Mercy Kiss

Abandoned Pools

Cifrado: Principal (guitarra y guitarra eléctrica)
tono: F#
e(------------------------------------)
b(------------------------------------)
g(--1-1-----1-1-1---1-1---------------)
d(----------------1---------1-2-2-121-)
a(--------------------------------121-)
D(------666-------------666-------121-)

verse
e(----------------------4---4---4-)
b(--------------------------------)
g(--------------------------------)
d(--2---0-------------2---0-------)
a(----------2-----------------2---)
D(--------------121---------------)

chorus
e(------44-)(-------------)
b(------44-)(-------------)
g(---------)(-------------)
d(--121----)(--5123-/5123-)
a(--121----)(--5123-/5123-)
D(--121----)(--5123-/5123-)

2nd verse
e(------------4-)(----------harmonics---)
b(----------4---)(------------harmonics-)
g(--2-1-2-1-----)(-------------------------)
d(--------------)(--121--------------------)
a(--------------)(--121--------------------)
D(--------------)(--121--------------------)

solo
e(-------------------3333333322222222-)
b(--4444444433333333------------------)
g(------------------------------------)
d(------------------------------------)
a(------------------------------------)
D(------------------------------------)

last chords
e(--------)
b(--------)
g(--2-----)
d(--2-1-2-)
a(--0-1-2-)
D(----1-2-)
Composición de Tommy Walter
21 vistas
    • ½ Tono
    • A
    • Bb
    • B
    • C
    • Db
    • D
    • Eb
    • E
    • F
    • F#
    • G
    • Ab
  • Agregar a la lista

    0 comentarios

    Ver todos los comentarios

    ¿Lograste tocar?

    0 Tocaron 0 Aún no

    ¡Graba un video tocando Mercy Kiss y envíanoslo!

    00:00 / 00:00
    Otros videos de esta canción
    Repetir Calidad Automático
    Otros videos de esta canción
    00:00 / 00:00
    Automático
    OK