Cifra Club

El padre que siempre soñé

Abel Zavala

Cifrado: Principal (guitarra y guitarra eléctrica)
tono: Cm
   Cm   Bb6         Abmaj7  Gm7       Cm
e-|-8---7--8--7--5--3--5------0--------------|
B-|-9---5--------5--3--5----3---3--0--1------|
G-|-----7-----------------------------2----2-|
D-|-----5--------------3----2---------2--2---|
A-|-0---------------------------------0------|
E-|------------------------------------------|

       Bb6        Abmaj7    Gm
e-|---------------------------------|
B-|---1-0--1--0---------------------|
G-|--2--0-------2--0--2-------------|
D-|-2---2-------------3--0--2--0----|
A-|------------------------------0--|
E-|-----3-------------1-------------|


ESTROF  1:

         Abadd9/C
Estás conmigo
    Bb/D          Eb    Abmaj7
desde antes de verme nacer
     Bb              Cm
tu palabra me hizo saber
        Bb/D        Eb    Abmaj7
de las cosas tan hermosas que
             Bb
creaste para mí.

        Cm
Es asombroso
            Bb/D           Eb   Abmaj7
que en tus planes me encontrara yo
    Bb               Cm
alcanzado tus propósitos
    Bb/D           Eb     Abmaj7              Bb
en mi vida puedo a diario ver que marcas el camino.


C O R O:

         Eb
Estás conmigo
          Bb/D               Cm
desde la noche hasta el amanecer
       Bb6              Abmaj7
cada momento he podido ver
                 Eb
que tu favor me guía
       Fm7            Bbsus  Bb   Eb
a cumplir lo que tu quieres para mí
         Bb/D                Cm
eres el padre que siempre soñé
         Bb6                 Abmaj7
mi amor eterno, mi razón de ser
               Eb
mi dulce compañía
         Fm7        Cm
en cada uno de mis días
         Bb6           Bb   Cm   Bb6  Abmaj7  Fm7
eres el padre que siempre soñé.


ESTROF  II:

         Cm
Estas conmigo
  Bb/D           Eb      Abmaj7
a pesar de los errores que
      Bb               Cm
sabes bien pudiera cometer
    Bb/D     Eb    Abmaj7               Bb
me ayudas a permanecer de pie ante la vida.



C O R O:

         Eb
Estás conmigo
          Bb/D               Cm
desde la noche hasta el amanecer
       Bb6              Abmaj7
cada momento he podido ver
                 Eb
que tu favor me guía
       Fm7            Bbsus  Bb   Eb
a cumplir lo que tu quieres para mí
         Bb/D                Cm
eres el padre que siempre soñé
         Bb6                 Abmaj7
mi amor eterno, mi razón de ser
               Eb
mi dulce compañía
         Fm7        Cm
en cada uno de mis días
         Bb6           Bb   Cm   Bb6  Abmaj7  Fm7
eres el padre que siempre soñé.



Acordes Usados:

               Bb/D

      3    4    5    6    7
e-|X|-||-|----|----|----|----|
B-| |-||-|----|----|-◙--|----|
G-| |-||-|----|----|----|----|
D-| |-||-|----|----|----|----|
A-| |-||-|----|-◙--|----|----|
E-|X|-||-|----|----|----|----|



               Bb6

      3    4    5    6    7
e-| |-||-|----|----|----|----|
B-| |-||-|----|----|----|----|
G-| |-||-|----|----|----|----|
D-| |-||-|----|-◙--|----|----|
A-|X|-||-|----|----|----|----|
E-| |-||-|----|----|-◙--|----|



                Bb

      3    4    5    6    7
e-| |-||-|----|----|-◙--|----|
B-| |-||-|----|----|----|----|
G-| |-||-|----|----|----|----|
D-| |-||-|----|----|----|----|
A-|X|-||-|----|----|----|----|
E-| |-||-|----|----|-◙--|----|


               Bbsus

      3    4    5    6    7
e-| |-||-|----|----|-◙--|----|
B-| |-||-|-◙--|----|----|----|
G-| |-||-|----|----|----|----|
D-| |-||-|----|----|----|----|
A-|X|-||-|----|----|----|----|
E-| |-||-|----|----|-◙--|----|


                Eb

      3    4    5    6    7
e-| |-||-|----|----|----|----|
B-| |-||-|-◙--|----|----|----|
G-| |-||-|----|----|----|----|
D-| |-||-|----|-◙--|----|----|
A-| |-||-|----|----|-◙--|----|
E-| |-||-|----|----|----|----|


                        Cm

      3    4    5    6    7
e-| |-||-|----|----|----|----|
B-| |-||-|-◙--|----|----|----|
G-| |-||-|----|-◙--|----|----|
D-| |-||-|----|-◙--|----|----|
A-|X|-||-|----|----|----|----|
E-| |-||-|----|----|-.--|----|



                Fm7

      3    4    5    6    7
e-| |-||-|-◙--|----|----|----|
B-| |-||-|-◙--|----|----|----|
G-| |-||-|----|-◙--|----|----|
D-| |-||-|----|----|----|----|
A-| |-||-|----|----|----|----|
E-| |-||-|----|----|----|----|


             Abadd9/C

      3    4    5    6    7
e-|X|-||-|----|----|----|----|
B-| |-||-|-◙--|----|----|----|
G-| |-||-|----|----|----|----|
D-| |-||-|----|----|-◙--|----|
A-|0|-||-|----|----|----|----|
E-|X|-||-|----|----|----|----|


              Abmaj7

       3    4    5
e-| |-||-|----|----|----|----|
B-| |-||-|-◙--|----|----|----|
G-| |-||-|----|-◙--|----|----|
D-| |-||-|----|----|-◙--|----|
A-|X|-||-|----|----|----|----|
E-| |-||-|-◙--|----|----|----|
      ↑
      ↑
Las líneas en el 3er. traste es para simular el capo.
00:00 / 00:00
Otros videos de esta canción
Repetir
Otros videos de esta canción
Composición de Abel Zabala
48 vistas
    • ½ Tono
    • Am
    • Bbm
    • Bm
    • Cm
    • C#m
    • Dm
    • Ebm
    • Em
    • Fm
    • F#m
    • Gm
    • G#m
  • Agregar a la lista

    0 comentarios

    Ver todos los comentarios
    00:00 / 00:00
    OK