Cifra Club

Jesús mi fiel amigo

Abel Zavala

Cifrado: Principal (guitarra y guitarra eléctrica)
tono: Em
E|---------------------------------------------------------|
B|-----3--1------------------------------------------------|
G|-----------------------------------------------4--5----4-|
D|---------------------------------------------------------|
A|---------------------------------------------------------|
E|---------------------------------------------------------|

E|---------------------------------------------------------|
B|---------------------------------------------------3---5-|
G|---0----0------------------------------------------------|
D|---------------------------------------------------------|
A|---------------------------------------------------------|
E|---------------------------------------------------------|

E|---------------------------------------------------------|
B|---------------------------------------------------0---1-|
G|---------------------------------------------------------|
D|---------------------------------------------------------|
A|---------------------------------------------------------|
E|---------------------------------------------------------|

E|---------------------------------------------------------|
B|-3--3--3-------------------------------8---10--12---10---|
G|---------------------------------------------------------|
D|-------------------2--5---7----9---12--------------------|
A|---------------------------------------------------------|
E|---------------------------------------------------------|

E|-----7--8----------------------8---7--8---8---8--8-------|
B|---------------------------------------------------------|
G|---------------------------------------------------------|
D|---------------------------------------------------------|
A|---------------------------------------------------------|
E|---------------------------------------------------------|

E|-7-7-7---------------------------------------------------|
B|------------10-8---8---------10--------------------------|
G|----------7--------------7------12---------8-------------|
D|-----------------------------------12--------12----------|
A|------------------------------------------------15-------|
E|---------------------------------------------------------|

E|--------------------0------8------------8----8-----------|
B|--4--------------------8---------------------------------|
G|-----7--5------------------------------------------------|
D|---------------------------------------------------------|
A|---------------------------------------------------------|
E|---------------------------------------------------------|

E|--7--7--7---------------10-12-10-------------------------|
B|---------------------------------------------------------|
G|-----------------------------------------14--14---12-----|
D|---------------------------------------------------------|
A|---------------------------------------------------------|
E|---------------------------------------------------------|

E|---------------------------------------------------------|
B|----------------------------------------10--10-12-10-----|
G|--14----12------------------9--11---12-------------------|
D|---------------------------------------------------------|
A|---------------------------------------------------------|
E|---------------------------------------------------------|

E|-14-15-14-10-14--15--14--12--12------------15---17---19--|
B|-----------------------------------15-17-----------------|
G|---------------------------------------------------------|
D|---------------------------------------------------------|
A|---------------------------------------------------------|
E|---------------------------------------------------------|

E|-17-15-17------------------------------------------------|
B|---------------------18--15--17-15--18-15-17-15----------|
G|--------------------------------------------------17-----|
D|---------------------------------------------------------|
A|---------------------------------------------------------|
E|---------------------------------------------------------|

E|---------------------------------------------------12----|
B|-15-17-17-17------------15-17----------------------------|
G|-------------17-----------------16-----------------------|
D|---------------------------------------------------------|
A|---------------------------------------------------------|
E|---------------------------------------------------------|

E|--------------------------------------------------7------|
B|--10----10---10-12--10---10-------------------10---------|
G|---------------------------------------------------------|
D|---------------------------------------------------------|
A|---------------------------------------------------------|
E|---------------------------------------------------------|

E|-8--10--10-12---12-12------10-12---8--10-----------10-12-|
B|---------------------------------------------------------|
G|---------------------------------------------------------|
D|---------------------------------------------------------|
A|---------------------------------------------------------|
E|---------------------------------------------------------|

E|--12----|
B|--------|
G|--------|
D|--------|
A|--------|
E|--------|
00:00 / 00:00
Otros videos de esta canción
Repetir
Otros videos de esta canción
Composición de Abel Zavala
46 vistas
    • ½ Tono
    • Am
    • Bbm
    • Bm
    • Cm
    • C#m
    • Dm
    • Ebm
    • Em
    • Fm
    • F#m
    • Gm
    • G#m
  • Agregar a la lista

    0 comentarios

    Ver todos los comentarios
    00:00 / 00:00
    OK