Cifra Club

Te pertenezco

Abel Zavala

Cifrado: Principal (guitarra y guitarra eléctrica)
tono: F
Intro Acústica y Piano: C# - G#

Intro Eléctrica:


E|-----------------------------------------------------|
B|-----------------------------------------------------|
G|-12--12-12/--13--13-13-10-----------------------------|
D|--x---x--x----x---x--x--x-----------------------------|
A|-10--10-10/--11--11-11--8-----------------------------|
E|-----------------------------------------------------|

E|-----------------------------------------------------|
B|-----------------------------------------------------|
G|-12--12-12/--13--13-13-10-----------------------------|
D|--x---x--x----x---x--x--x-----------------------------|
A|-10--10-10/--11--11-11--8-----------------------------|
E|-----------------------------------------------------|

E|-----------------------------------------------------|
B|-----------------------------------------------------|
G|-12--12-12/--13--13-13/--15-----------------------------|
D|--x---x--x----x---x--x----x-----------------------------|
A|-10--10-10/--11--11-11/--13-----------------------------|
E|-----------------------------------------------------|

E|-----------------------------------------------------|
B|-----------------------------------------------------|
G|-12--12-12/--13--13-13--------------------------------|
D|--x---x--x----x---x--x--------------------------------|
A|-10--10-10/--11--11-11--------------------------------|
E|-----------------------------------------------------|
00:00 / 00:00
Otros videos de esta canción
Repetir
Otros videos de esta canción
Composición de Abel zavala
82 vistas
    • ½ Tono
    • A
    • Bb
    • B
    • C
    • Db
    • D
    • Eb
    • E
    • F
    • F#
    • G
    • Ab
  • Agregar a la lista

    0 comentarios

    Ver todos los comentarios
    00:00 / 00:00
    OK