Cifra Club

En Realidad

Abracadabra

Cifrado: Principal (guitarra y guitarra eléctrica)
tono: D
INTRO: 
                     G       A7               D      Bm              Em     A7 
E|--------------------------------------------------------------------------------- 
B|-------7--5--7--7/8---8-7-5----5-----5---5/7--7/5/8-----3----3--3/5--5/3/2------- 
G|---5/7--7-------------------4/6--4/6---6-------------2/4--2/4--2----------------- 
D|--------------------------------------------------------------------------------- 
A|--------------------------------------------------------------------------------- 
E|--------------------------------------------------------------------------------- 

e|---17/19/17----------------- 
B|---17/19/17----------------- 
G|---------------------------- 
D|---------------------------- 
A|---------------------------- 
E|---------------------------- 

        D                       Em 
En realidad, solo queria felicitarte ya lo vez 
         A7                        D   A7 
por tu nuevo amor, y que sigan adelante 
         D                           Em   
En realidad, todas mis cartas eran broma es verdad, 
       A7                     D 
y mis palabras, fueron solo soledad 

                                     A7 
En realidad, yo ya tengo quien me quiera 
          G              A7             D  D7 
lejos de aqui, lejos de todo, lejos de ti 

CORO: 
                G              A7 
'Olvida lo que dije un dia de ti  
                D           Bm 
dije que te queria solo menti 
               Em          A7 
solo estaba jugando si eso es  
          D           D7 
jugue contigo ya lo vez  

              G             A7 
Olvida ya la tarde que te ame  
                D                Bm 
tirados en la arena que yo ya olvide 
              Em          A7 
y se feliz como debes de ser 
         D 
y olvidate de mi' 

INTRO: 
                     G       A7               D      Bm              Em     A7 
E|--------------------------------------------------------------------------------- 
B|-------7--5--7--7/8---8-7-5----5-----5---5/7--7/5/8-----3----3--3/5--5/3/2------- 
G|---5/7--7-------------------4/6--4/6---6-------------2/4--2/4--2----------------- 
D|--------------------------------------------------------------------------------- 
A|--------------------------------------------------------------------------------- 
E|--------------------------------------------------------------------------------- 

e|---17/19/17----------------- 
B|---17/19/17----------------- 
G|---------------------------- 
D|---------------------------- 
A|---------------------------- 
E|---------------------------- 

         D                      Em 
En realidad, tube muchas veces la oportunidad 
       A7                   D       A7 
de confesarte lo que no senti jamas, 
         D                    Em 
en realidad, eres todo lo que yo llegue a soñar  
         A7                           D     A7 
pero es muy tarde, y ahora tengo que pagar 

         D                    A7 
En realidad sera dificil olvidarte, 
       G                  A7             D      D7 
nunca sabras, que yo te quice mucho en realidad 

CORO: 
'olvida lo que dije......... 

Al final el coro se repite dos veces 

NOTA: 
los numeros que estan asi: 5/7, es por ejemplo: estar pisando  
el traste 5 y deslisarlo al 7 o martillarlo 
aun que si ya han escuchado la cancion creo que lo entenderan. 
Dudas, aclaraciones o correciones acerca del intro, por favor  
escribanme, aun que creanme que esta correcto
00:00 / 00:00
Otros videos de esta canción
Repetir
Otros videos de esta canción
Composición de Mario Diaz
Colaboración y revisión:
  • Rangel Pinheiro
2.353 vistas
    • ½ Tono
    • A
    • Bb
    • B
    • C
    • Db
    • D
    • Eb
    • E
    • F
    • F#
    • G
    • Ab
  • Agregar a la lista

    0 comentarios

    Ver todos los comentarios

    ¿Lograste tocar?

    0 Tocaron 0 Aún no

    ¡Graba un video tocando En Realidad y envíanoslo!

    00:00 / 00:00
    OK