Cifra Club

All Screwed Up

AC/DC

Tab de bajo: Versão 2
Bass Enters After 4 Measures.

Verse 1: (Through-out the verses and pre-chorus just follow the guitar)

G| -------------------|
D| -------------------|
A| 0-22-0-22-0-22-----|    X8
E| -------------------|

G| --------------------|
D| --------------------|
A| --------------------|    X2
E| 0-22-0-22-0-22------|

G| -------------------|
D| -------------------|
A| 0-22-0-22-0-22-----|    X2
E| -------------------|

Pre-Chorus:
  ****        X4          ****
G|------------------ | ------------------|
D| ----------------- | ------------------|
A| 5--7--------5--5- | ------------------|
E| ------7--5--------| 0------0----0---0-|

Chorus 1:

G| -------------------------- | --------------------|
D| -------------------------- | --------------------|
A| 222222222222222222222222 | 7--------5----4-------|
E| -------------------------- | --------------------|

Verse 2:

G| -------------------|
D| -------------------|
A| 0-22-0-22-0-22-----|    X4
E| -------------------|

G| --------------------|
D| --------------------|
A| --------------------|    X2
E| 0-22-0-22-0-22------|

G| -------------------|
D| -------------------|
A| 0-22-0-22-0-22-----|    X2
E| -------------------|

Pre-Chorus:
  ****        X4          ****
G|------------------ | ------------------|
D| ----------------- | ------------------|
A| 5--7--------5--5- | ------------------|
E| ------7--5--------| 0------0----0---0-|

Chorus 2:

G| -------------------------- | --------------------|
D| -------------------------- | --------------------|
A| 222222222222222222222222 | 7--------5----4-------|
E| -------------------------- | --------------------|

G| -------------------------- | --------------------|
D| -------------------------- | --------------------|
A| 222222222222222222222222 | ----------------------|
E| -------------------------- | --0-2---3------5----|

Bridge/Solo:

G| ----------------- |
D| ----------------- |
A| -2-2-2-2-5-5-0-0- |
E| ------------------|

Pre-Chorus:
  ****        X4          ****
G|------------------ | ------------------|
D| ----------------- | ------------------|
A| 5--7--------5--5- | ------------------|
E| ------7--5--------| 0------0----0---0-|

Chorus 3:

G| -------------------------- | --------------------------|
D| -------------------------- | --------------------------|
A| 222222222222222222222222 | 7--------5----4-------------|        X2
E| -------------------------- | --------------------------|

G| -------------------------- | -------------------------|
D| -------------------------- | -------------------------|
A| 222222222222222222222222 | ---------------------------|       X2
E| -------------------------- | --0-2---3------5---------|
                                                                   ^
                                            On Last time through play this part twice

Outro:

Just keep repeating the Bridge/Solo riff:
A| -2-2-2-2-5-5-0-0- |

Then towards the end of the song the second fill on the chorus is played:
E|--0-2---3------5--|

End song on b...or 2 fret on A string.
reproducciones 3
Composição: Angus Young / Malcolm Young Colaboración y revision:
  • Taino Vieira

0 comentarios

mostrar más comentarios

¿Conseguiste tocar?

0 tocaron 0 aún no

¡Graba un vídeo tocando All Screwed Up y envianoslo!

00:00 / 00:00
outros vídeos desta música
repetir qualidade Automático
Outros vídeos desta música
00:00 / 00:00
Automático
OK