Cifra Club

Aprenda

Back In Black

AC/DC

Tablatura: Riff (guitarra)
tono: A
Intro: E D A
                                                 E      D9       A
E|-------x---------x----|-------x--------x----|------------------------|
B|-------x---------x----|-------x--------x----|---------3-3-3----------|
G|--x----x----x----x----|--x----x----x---x----|--1------2-2-2----2-2-2-|
D|--x---------x---------|--x---------x--------|--2------0-0-0----2-2-2-|
A|--x---------x---------|--x---------x--------|--2---------------0-0-0-|
E|----------------------|---------------------|--0---------------------|
                                 E       D9       A
E|------------3-0-------------|-------------------------|---------------------------|
B|----------------3-0---------|----------3-3-3----------|---------------------------|
G|--------------------2b4b2-0-|--1-------2-2-2----2-2-2-|---------------------------|
D|----------------------------|--2-------0-0-0----2-2-2-|---------------------------|
A|----------------------------|--2----------------0-0-0-|-------2----2----2----2----|
E|----------------------------|--0----------------------|----------4----5----6----7-|
                                                      E     D9         A
E|------------------------|------------3-0----------|------------------------|
B|---------3-3-3----------|---------------3-0-------|-------3-3-3------------|
G|--1------2-2-2----2-2-2-|-------------------2~~-0-|-------2-2-2------2-2-2-|
D|--2------0-0-0----2-2-2-|-------------------------|-------0-0-0------2-2-2-|
A|--2---------------0-0-0-|-------------------------|------------------0-0-0-|
E|--0---------------------|-------------------------|------------------------|
                                E      D9       A
E|---------------------------|------------------------|------------3-0-----------|
B|--1------------------------|---------3-3-3----------|----------------3-0-------|
G|--2------------------------|--1------2-2-2----2-2-2-|--------------------2~~-0-|
D|--2------------------------|--2------0-0-0----2-2-2-|--------------------------|
A|--0----2----2----2----2----|--2---------------0-0-0-|--------------------------|
E|----------4----5----6----7-|--0---------------------|--------------------------|

E|------------------------|---------------------------|------------------------|
B|---------3-3-3----------|---------------------------|---------3-3-3----------|
G|--1------2-2-2----2-2-2-|--2------------------------|---------2-2-2------2-2-|
D|--2------0-0-0----2-2-2-|--2------------------------|--2------0-0-0------2-2-|
A|--2---------------0-0-0-|--0----2----2----2----2----|--2-----------------0-0-|
E|--0---------------------|---------4----5----6----7--|--0---------------------|

E|------------3-0-----------|------------------------|---------------------------|
B|----------------3-0-------|---------3-3-3----------|---------------------------|
G|--------------------2~~-0-|---------2-2-2----2-2-2-|---------------------------|
D|--------------------------|--2------0-0-0----2-2-2-|---------------------------|
A|--------------------------|--2---------------0-0-0-|-------2----2----2----2----|
E|--------------------------|--0---------------------|----------4----5----6----7-|

E|-----------------------|-----------------------|----3---2---------------|
B|-----------------------|-----------------------|----3---3---------------|
G|----2-------4---2---4--|----2-------4---2---4--|----0---2---2--------2--|
D|----2---2---4---2---4--|----2---2---4---2---4--|----0---0---2--------2--|
A|----0---2---2---0---2--|----0---2---2---0---2--|----x-------0--------0--|
E|--------0--------------|--------0--------------|----3-----------3-3b----|

E|----3---2---------------|-----------------------|-----------------------|
B|----3---3---------------|-----------------------|-----------------------|
G|----0---2---2--------2--|----2-------4---2---4--|----2-------4---2---4--|
D|----0---0---2--------2--|----2---2---4---2---4--|----2---2---4---2---4--|
A|----x-------0--------0--|----0---2---2---0---2--|----0---2---2---0---2--|
E|----3-----------3-3b----|--------0--------------|--------0--------------|

E|--3---3---3---3-3-3-3--3--|--2---2---2----------|------------------------|
B|--3---3---3---3-3-3-3--3--|--3---3---3----------|---------3-3-3----------|
G|--0---0---0---0-0-0-0--0--|--2---2---2----------|--1------2-2-2----2-2-2-|
D|--0---0---0---0-0-0-0--0--|--0---0---0----------|--2------0-0-0----2-2-2-|
A|--x---x---x---x-x-x-x--x--|---------------------|--2---------------0-0-0-|
E|--3---3---3---3-3-3-3--3--|---------------------|--0---------------------|

E|------------3-0-----------|------------------------|---------------------------|
B|----------------3-0-------|---------3-3-3----------|---------------------------|
G|--------------------2~~-0-|--1------2-2-2----2-2-2-|---------------------------|
D|--------------------------|--2------0-0-0----2-2-2-|---------------------------|
A|--------------------------|--2---------------0-0-0-|-------2----2----2----2----|
E|--------------------------|--0---------------------|---------4----5----6----7-|

E|------------------------|------------3-0-----------|------------------------|
B|---------3-3-3----------|----------------3-0-------|---------3-3-3----------|
G|--1------2-2-2----2-2-2-|--------------------2~~-0-|--1------2-2-2----2-2-2-|
D|--2------0-0-0----2-2-2-|--------------------------|--2------0-0-0----2-2-2-|
A|--2---------------0-0-0-|--------------------------|--2---------------0-0-0-|
E|--0---------------------|--------------------------|--0---------------------|

E|---------------------------|-----------------------|-----------------------|
B|---------------------------|-----------------------|-----------------------|
G|---------------------------|----2-------4---2---4--|----2-------4---2---4--|
D|---------------------------|----2---2---4---2---4--|----2---2---4---2---4--|
A|-------2----2----2----2----|----0---2---2---0---2--|----0---2---2---0---2--|
E|----------4----5----6----7-|--------0--------------|--------0--------------|

E|----3---2---------------|----3---2---------------|-----------------------|
B|----3---3---------------|----3---3---------------|-----------------------|
G|----0---2---2--------2--|----0---2---2--------2--|----2-------4---2---4--|
D|----0---0---2--------2--|----0---0---2--------2--|----2---2---4---2---4--|
A|----x-------0--------0--|----x-------0--------0--|----0---2---2---0---2--|
E|----3-----------3-3b----|----3-----------3-3b----|--------0--------------|

E|-----------------------|--3---3---3---3-3-3-3--3--|--2---2---2----------|
B|-----------------------|--3---3---3---3-3-3-3--3--|--3---3---3----------|
G|----2-------4---2---4--|--0---0---0---0-0-0-0--0--|--2---2---2----------|
D|----2---2---4---2---4--|--0---0---0---0-0-0-0--0--|--0---0---0----------|
A|----0---2---2---0---2--|--x---x---x---x-x-x-x--x--|---------------------|
E|--------0--------------|--3---3---3---3-3-3-3--3--|---------------------|

Solo:
E|------------------------|---------------------------|------------------------|
B|------------------------|---------------------------|------------------------|
G|------------------------|---------------------------|------------------------|
D|--2---------------------|---------2-2-2--2-2-2--2-2-|--2---------------------|
A|--2------5-5-5------4-4-|--4------2-2-2--2-2-2--2-2-|--2------5-5-5------4-4-|
E|--0------0-0-0------0-0-|--0------0-0-0--0-0-0--0-0-|--0------0-0-0------0-0-|

E|-----------------------|------------------------|---------------------------|
B|------------2-------2--|------------------------|---------------------------|
G|------------2-------2--|------------------------|---------------------------|
D|---------2--2---2---2--|--2---------------------|---------2-2-2--2-2-2--2-2-|
A|--4------2--0---2---0--|--2------5-5-5------4-4-|--4------2-2-2--2-2-2--2-2-|
E|--0------0------0------|--0------0-0-0------0-0-|--0------0-0-0--0-0-0--0-0-|

E|------------------------|-----------------------|------------------------|
B|------------------------|------------2-------2--|------------------------|
G|------------------------|------------2-------2--|------------------------|
D|--2---------------------|---------2--2---2---2--|--2---------------------|
A|--2------5-5-5------4-4-|--4------2--0---2---0--|--2------5-5-5------4-4-|
E|--0------0-0-0------0-0-|--0------0------0------|--0------0-0-0------0-0-|

E|---------------------------|------------------------|-----------------------|
B|---------------------------|------------------------|------------2-------2--|
G|---------------------------|------------------------|------------2-------2--|
D|---------2-2-2--2-2-2--2-2-|--2---------------------|---------2--2---2---2--|
A|--4------2-2-2--2-2-2--2-2-|--2------5-5-5------4-4-|--4------2--0---2---0--|
E|--0------0-0-0--0-0-0--0-0-|--0------0-0-0------0-0-|--0------0------0------|

E|------------------------|---------------------------|------------------------|
B|------------------------|---------------------------|------------------------|
G|------------------------|---------------------------|------------------------|
D|--2---------------------|---------2-2-2--2-2-2--2-2-|--2---------------------|
A|--2------5-5-5------4-4-|--4------2-2-2--2-2-2--2-2-|--2------5-5-5------4-4-|
E|--0------0-0-0------0-0-|--0------0-0-0--0-0-0--0-0-|--0------0-0-0------0-0-|

E|-----------------------|-----------------------|-----------------------|
B|------------2-------2--|-----------------------|-----------------------|
G|------------2-------2--|----2-------4---2---4--|----2-------4---2---4--|
D|---------2--2---2---2--|----2---2---4---2---4--|----2---2---4---2---4--|
A|--4------2--0---2---0--|----0---2---2---0---2--|----0---2---2---0---2--|
E|--0------0------0------|--------0--------------|--------0--------------|

E|----3---2---------------|----3---2---------------|-----------------------|
B|----3---3---------------|----3---3---------------|-----------------------|
G|----0---2---2--------2--|----0---2---2--------2--|----2-------4---2---4--|
D|----0---0---2--------2--|----0---0---2--------2--|----2---2---4---2---4--|
A|----x-------0--------0--|----x-------0--------0--|----0---2---2---0---2--|
E|----3-----------3-3b----|----3-----------3-3b----|--------0--------------|

E|-----------------------|--3---3---3---3-3-3-3--3--|--2---2---2----------|
B|-----------------------|--3---3---3---3-3-3-3--3--|--3---3---3----------|
G|----2-------4---2---4--|--0---0---0---0-0-0-0--0--|--2---2---2----------|
D|----2---2---4---2---4--|--0---0---0---0-0-0-0--0--|--0---0---0----------|
A|----0---2---2---0---2--|--x---x---x---x-x-x-x--x--|---------------------|
E|--------0--------------|--3---3---3---3-3-3-3--3--|---------------------|

E|-------------------------------|-------------------------------||
B|-------------------------------|-------------------------------||
G|*------------------------------|------------------------------*||
D|*------------------------------|------------------------------*||
A|-----5p4-2-4----2----2----2----|----5p4-2-4----2----2----2-----||
E|---0---------3----5----6----7--|--0---------3----5----6----7---||

E|------------------------------|------------------------------|
B|------------------------------|------------------------------|
G|------------------------------|------------------------------|
D|------------------------------|------------------------------|
A|----5p4-2-4----2----2----2----|----5p4-2-4----2----2----2----|
E|--0---------3----5----6----7--|--0---------3----5----6----7--|

E|------------------------------|------------------------------|
B|------------------------------|------------------------------|
G|------------------------------|------------------------------|
D|----5p4-2-4----2----2----2----|----5p4-2-4----2----2----2----|
A|--0---------3----5----6----7--|--0---------3----5----6----7--|
E|------------------------------|------------------------------|

E|------------------------------|------------------------------|
B|------------------------------|------------------------------|
G|------------------------------|------------------------------|
D|------------------------------|------------------------------|
A|----5p4-2-4----2----2----2----|----5p4-2-4----2----2----2----|
E|--0---------3----5----6----7--|--0---------3----5----6----7--|

E|-----------------------|-----------------------|----3---2---------------|
B|-----------------------|-----------------------|----3---3---------------|
G|----2-------4---2---4--|----2-------4---2---4--|----0---2---2--------2--|
D|----2---2---4---2---4--|----2---2---4---2---4--|----0---0---2--------2--|
A|----0---2---2---0---2--|----0---2---2---0---2--|----x-------0--------0--|
E|--------0--------------|--------0--------------|----3-----------3-3b----|

E|----3---2---------------|-----------------------|-----------------------|
B|----3---3---------------|-----------------------|-----------------------|
G|----0---2---2--------2--|----2-------4---2---4--|----2-------4---2---4--|
D|----0---0---2--------2--|----2---2---4---2---4--|----2---2---4---2---4--|
A|----x-------0--------0--|----0---2---2---0---2--|----0---2---2---0---2--|
E|----3-----------3-3b----|--------0--------------|--------0--------------|

E|--3---3---3---3-3-3-3--3--|--2---2---2----------|-------------------|
B|--3---3---3---3-3-3-3--3--|--3---3---3----------|-------------------|
G|--0---0---0---0-0-0-0--0--|--2---2---2----------|--2----------------|
D|--0---0---0---0-0-0-0--0--|--0---0---0----------|--2----------------|
A|--x---x---x---x-x-x-x--x--|---------------------|--0----------------|
E|--3---3---3---3-3-3-3--3--|---------------------|-------------------|

E|------------------|------------------------|---------------------------|
B|------------------|------------------------|---------------------------|
G|------------------|------------------------|---------------------------|
D|------------------|--2---------------------|---------2-2-2--2-2-2--2-2-|
A|------------------|--2------5-5-5------4-4-|--4------2-2-2--2-2-2--2-2-|
E|------------------|--0------0-0-0------0-0-|--0------0-0-0--0-0-0--0-0-|

E|------------------------|-----------------------|------------------------|
B|------------------------|------------2-------2--|------------------------|
G|------------------------|------------2-------2--|------------------------|
D|--2---------------------|---------2--2---2---2--|--2---------------------|
A|--2------5-5-5------4-4-|--4------2--0---2---0--|--2------5-5-5------4-4-|
E|--0------0-0-0------0-0-|--0------0------0------|--0------0-0-0------0-0-|

E|---------------------------|------------------------|-----------------------|
B|---------------------------|------------------------|------------2-------2--|
G|---------------------------|------------------------|------------2-------2--|
D|---------2-2-2--2-2-2--2-2-|--2---------------------|---------2--2---2---2--|
A|--4------2-2-2--2-2-2--2-2-|--2------5-5-5------4-4-|--4------2--0---2---0--|
E|--0------0-0-0--0-0-0--0-0-|--0------0-0-0------0-0-|--0------0------0------|

E|------------------------|---------------------------|------------------------|
B|------------------------|---------------------------|------------------------|
G|------------------------|---------------------------|------------------------|
D|--2---------------------|---------2-2-2--2-2-2--2-2-|--2---------------------|
A|--2------5-5-5------4-4-|--4------2-2-2--2-2-2--2-2-|--2------5-5-5------4-4-|
E|--0------0-0-0------0-0-|--0------0-0-0--0-0-0--0-0-|--0------0-0-0------0-0-|

E|-----------------------|------------------------|---------------------------|
B|------------2-------2--|------------------------|---------------------------|
G|------------2-------2--|------------------------|---------------------------|
D|---------2--2---2---2--|--2---------------------|---------2-2-2--2-2-2--2-2-|
A|--4------2--0---2---0--|--2------5-5-5------4-4-|--4------2-2-2--2-2-2--2-2-|
E|--0------0------0------|--0------0-0-0------0-0-|--0------0-0-0--0-0-0--0-0-|

E|------------------------|-----------------------||
B|------------------------|------------2-------2--||
G|------------------------|------------2-------2--||
D|--2---------------------|---------2--2---2---2--||
A|--2------5-5-5------4-4-|--4------2--0---2---0--||
E|--0------0-0-0------0-0-|--0------0------0------||

Solo:
E|----------------------|
B|----------------------|
G|----------------------|
D|----------------------|
A|-----7~-----5--5~-----|
E|--0-------------------|

E|------------------------------|----------------------|------------------------|
B|------------------------------|----------------------|------------------------|
G|----------------0-2-3p2p0-2---|----------------------|-------------7--7--7--7-|
D|--------------2-------------2-|----------------------|------------------------|
A|--4--4~-----2-----------------|-----7~-----5--5~-----|--4--4~-----------------|
E|------------------------------|--0-------------------|------------------------|

E|------------------------|-----------------------------------------|
B|-------------8----------|----8-10h11p10p8-10-8b-------------------|
G|---7b------7b--7b--9~---|--9-------------------9-7-9~----12b---12-|
D|------------------------|-----------------------------------14----|
A|-----------------0------|-----------------------------------------|
E|------------------------|-----------------------------------------|

E|----------------------------------|-----------------------------------------|
B|------15-15------15---------------|-------------------------------15--------|
G|--14b----14b--------14r-12-14~--0-|----12-------12----14-12-14-14b---14b----|
D|----------------------------------|--x-12h14-14----14-----------------------|
A|----------------------------------|-----------------------------------------|
E|----------------------------------|-----------------------------------------|

E|------12-12-------------12--------------------|
B|---12-------15b15b-15b-----15p12----12--------|
G|---------------------------------14----12-14b-|
D|----------------------------------------------|
A|----------------------------------------------|
E|----------------------------------------------|

E|---------15------------------------------|
B|--15-------------------------------------|
G|-----14b----14r-12-14----12-14~----------|
D|----------------------14-----------14-14-|
A|-----------------------------------------|
E|-----------------------------------------|

E|---------------------------------------------|
B|--12----14-------------15--------------------|
G|--12----14----12h14-14b---14r-12-------------|
D|-----14----14--------------------14~14~------|
A|-----------------------------------------x-x-|
E|---------------------------------------------|

E|-------------12------------------------|--------------0-----0~----|
B|----15b---------15p12----12------------|--0---3-5~----3-2-3-3~----|
G|----------------------14----12-----2p0-|----4---------------------|
D|--x-----------------------------14-----|--------------------------|
A|--x------------------------------------|--------------------------|
E|---------------------------------------|--------------------------|

E|--0---0-0~----------12-----------|--0----------0----0~-----|
B|--2p0-2-2~-------12----15b--15---|--5-3--5~----3-2--3~--3~-|
G|--------------14---------------0-|-------------------------|
D|---------------------------------|-------------------------|
A|---------------------------------|-------------------------|
E|---------------------------------|-------------------------|

E|--0-0--0~------------------12-|------------------|------------------|
B|--2p0--2~----x-15---15--15----|------------------|------------------|
G|-------------x-14r--14b-14b---|------------------|------------------|
D|------------------------------|------------------|------------------|
A|------------------------------|------------------|------------------|
E|------------------------------|------------------|------------------|

E|------------------|------------------|------------------|--------------------|
B|------------------|------------------|------------------|--------13b---------|
G|------------------|------------------|------------------|--------------------|
D|------------------|------------------|------------------|--------------------|
A|------------------|------------------|------------------|--------------------|
E|------------------|------------------|------------------|--------------------|

E|----------------------|------------------------|-------------0-----------|
B|--12b-------------12--|--10~-------------------|--5p3--5~----3p2-2-3~----|
G|----------------------|------------------------|-------------------------|
D|----------------------|------------------------|-------------------------|
A|----------------------|------------------------|-------------------------|
E|----------------------|------------12---x--x---|-------------------------|

E|--0-----0~-----7--------|--------------0-----0~----|
B|--2p0-0-2-----8b--------|--5p3-3-5~----3p2-2-3~----|
G|-------------------9----|--------------------------|
D|------------------------|--------------------------|
A|------------------------|--------------------------|
E|------------------------|--------------------------|

E|--0------------------12--------|---------------------------------12-|
B|--2p0-0-2~------15b-----12-15b-|---15b15b----15b15b15b15b15b15b-----|
G|--------------x----------------|------------------------------------|
D|-------------------------------|------------------------------------|
A|-------------------------------|------------------------------------|
E|-------------------------------|------------------------------------|

E|--12------------------------15b-15b--15b|
B|-----15p12----12------------------------|
G|-----------14----12-14------------------|
D|----------------------------------------|
A|----------------------------------------|
E|----------------------------------------|

E|---15-12-15p12----12------------------------------------------------------------
B|---------------15----15p12-15p12----12------------------------------------------
G|---------------------------------15----15p14p12h14p12----14---------------------
D|------------------------------------------------------14----14p12h14p12----14-12
A|------------------------------------------------------------------------14------
E|--------------------------------------------------------------------------------

E|----------------------------------------|-----------------------------------|
B|-------------------------------------20-|--20b----------20b--------------20-|
G|----------------------------------------|------21--21--------21--19-21~-----|
D|--12b-12-12-12--12--12--12--12----------|-----------------------------------|
A|----------------------------------------|-----------------------------------|
E|----------------------------------------|-----------------------------------|

E|------------------------------------------------|
B|---20-20----20-20-20----20-20-20----20-20-20----|
G|---------21----------21----------21----------21-|
D|------------------------------------------------|
A|------------------------------------------------|
E|------------------------------------------------|

E|---------------------------------22-----22----|
B|--20-20-20----20-20-20----20-22b----22b----22b|
G|-----------21----------21---------------------|
D|----------------------------------------------|
A|----------------------------------------------|
E|----------------------------------------------|

E|---22-----22-----22-----22-----22----19-|
B|------22b----22b----22b----22b----22b---|
G|----------------------------------------|
D|----------------------------------------|
A|----------------------------------------|
E|----------------------------------------|

E|--22-------22-------------------22-19----19-----|
B|--22b24-24-22b24-24-22b24-24-22b------22b----22b|
G|------------------------------------------------|
D|------------------------------------------------|
A|------------------------------------------------|
E|------------------------------------------------|

E|--19-19----19-----22-----19-----19----------|
B|--------22b----22b----22b----22b---24-22p19-|
G|--------------------------------------------|
D|--------------------------------------------|
A|--------------------------------------------|
E|--------------------------------------------|

E|------------------------------------------------|--------------------------||
B|--20----22--20----------------------------------|--------------------------||
G|-----21--------21-21-19-21~---19-1612----14-12--|-----12-------------------||
D|---------------------------------------14-------|--14----14--14~-----------||
A|------------------------------------------------|--------------------------||
E|------------------------------------------------|--------------------------||
Composição de Angus Young / Brian Johnson
Colaboración y revision:
  • Kevin Melo.
966 reproducciones
    • ½ Tono
    • A
    • Bb
    • B
    • C
    • Db
    • D
    • Eb
    • E
    • F
    • F#
    • G
    • Ab
  • Adicionar à lista

    0 comentarios

    Ver todos os comentários
    00:00 / 00:00
    outros vídeos desta música
    repetir qualidade Automático
    Outros vídeos desta música
    00:00 / 00:00
    Automático
    Capítulos
    • Tocando a música
    • Dicas Iniciais / Equipamentos
    • Acordes da Introdução
    • Tocando a Introdução
    • Introdução
    • Introdução - Riff 1
    • Introdução - Riff 2
    • Tocando a Primeira Parte
    • Primeira Parte
    • Acordes do Refrão
    • Tocando o Refrão
    • Refrão - Parte 1 de 2
    • Refrão - Parte 2 de 2
    • Dicas 2
    • Tocando Segunda Parte - Primeiro Solo
    • Solo - Parte 1 de 4
    • Solo - Parte 2 de 4
    • Solo - Parte 3 de 4
    • Solo - Parte 4 de 4
    • Tocando Refrão e Ponte
    • Ponte - Parte 1 de 3
    • Ponte - Parte 2 de 3
    • Solo - Parte 2 de 3
    • Ponte - Parte 3 de 3
    • Tocando o Solo Final
    • Solo - Parte 1 de 3
    • Solo - Parte 3 de 3
    • Encerramento
    • Ficha Técnica
    OK