Cifra Club

Aprenda

Back In Black

AC/DC

Tablatura: Solo (guitarra)
tono: G
[Primeiro Solo]

(Parte 1)

  P.M     .      .      . .
E|------------------------------------------|
B|------------------------------------------|
G|------------------------------------------|
D|--------------------------5-7-7h8p7p5-7-5-|
A|---7~---x-5~---x-4~---5-7-----------------|
E|-0----------------------------------------|

  P.M     .      .      .
E|------------------------------------------|
B|------------------------------------------|
G|------------------------/7~-7~-7~-7-7b9~~-|
D|------------------------------------------|
A|-x-7~---x-5~---x-4~---x-------------------|
E|------------------------------------------|

(Parte 2)
    
E|------------------------------------------|
B|----8------------8-10h11p10p8-10-8--------|
G|-/9---9-7-9~---9-------------------9-7-9~-|
D|------------------------------------------|
A|------------------------------------------|
E|------------------------------------------|

E|----------------10----------10------------|
B|---8---8-10b12-----10b12~------b12r10p8---|
G|-x---9------------------------------------|
D|------------------------------------------|
A|------------------------------------------|
E|------------------------------------------|

        P.M  . .   .    .
E|-------------------------------10---------|
B|-10~-----8-----8---10---10b12-----10b12~~-|
G|-------x---9-9---9----9-------------------|
D|------------------------------------------|
A|------------------------------------------|
E|------------------------------------------|

(Parte 3)

E|-------12-12--------12--------------------|
B|-------------15b17------15b17~------------|
G|-14b16------------------------------------|
D|------------------------------------------|
A|------------------------------------------|
E|------------------------------------------|

E|-12---------------------------------------|
B|----15-12-----------------15--------------|
G|----------14-15-12-14b16-----14b16--------|
D|------------------------------------------|
A|------------------------------------------|
E|------------------------------------------|

E|------------------------------------------|
B|-15---------------------------------------|
G|----b16r14p12-14----12-14~----------------|
D|-----------------14-----------------------|
A|------------------------------------------|
E|------------------------------------------|

(Parte 4)

   P.M.     .     .
E|------------------------------------------|
B|-------12----14----12--------15-----------|
G|-------12----14----12-14b16-----b16r14p12-|
D|-14-14----14----14------------------------|
A|------------------------------------------|
E|------------------------------------------|

E|------------------------12----------------|
B|----------15b17~--15b17----15-12----------|
G|-12------------------------------14-15-12-|
D|----14~~----------------------------------|
A|------------------------------------------|
E|------------------------------------------|

E|------------------------------------------|
B|------------------------------------------|
G|------------------------------------------|
D|-14~--------------------------------------|
A|------------------------------------------|
E|------------------------------------------|

(Parte 5)

E|-0-0-0-0----0-0-0-0----0-0-0-0------------|
B|-5-3-3-5~---3-2-2-3~---2-0-0-2~-----------|
G|------------------------------------------|
D|------------------------------------------|
A|------------------------------------------|
E|------------------------------------------|

E|----------12------------------------------|
B|-------12----15b17~-----------------------|
G|-14b16------------------------------------|
D|------------------------------------------|
A|------------------------------------------|
E|------------------------------------------|

E|-0-0-0-0----0-0-0-0----0-0-0-0------------|
B|-5-3-3-5~---3-2-2-3~---2-0-0-2~-----------|
G|------------------------------------------|
D|------------------------------------------|
A|------------------------------------------|
E|------------------------------------------|

E|------------------------------------------|
B|-12b14------12----------------------------|
G|-12b14------12----------------------------|
D|--------14--------------------------------|
A|------------------------------------------|
E|------------------------------------------|

[Segundo Solo]

(Parte 1)

E|------------------------------------------|
B|-11b13r--10~~-----------------------------|
G|------------------------------------------|
D|------------------------------------------|
A|------------------------------------------|
E|------------------------------------------|

(Parte 2)

E|-0-0-0-0---0-0-0-0---0-0-0-0--------------|
B|-5-3-3-5~--3-2-2-3~--2-0-0-2~--12b14------|
G|-------------------------------12b14-14~--|
D|-------------------------------------14~--|
A|------------------------------------------|
E|------------------------------------------|

E|-0-0-0-0---0-0-0-0---0-0-0-0--------------|
B|-5-3-3-5~--3-2-2-3~--2-0-0-2~-------------|
G|------------------------------------------|
D|------------------------------------------|
A|------------------------------------------|
E|------------------------------------------|

(Parte 3)

E|--------12--------------------------------|
B|-15b17-----12-15b17--15--15b17~-----------|
G|------------------------------------------|
D|------------------------------------------|
A|------------------------------------------|
E|------------------------------------------|

E|-------------------------------12---------|
B|-15b17--15-b17-15-b17~~--15b17----15-12---|
G|----------------------------------------14|
D|------------------------------------------|
A|------------------------------------------|
E|------------------------------------------|

E|---------------15b17--15~-----------------|
B|------------------------------------------|
G|-15-14-12---------------------------------|
D|----------14~-----------------------------|
A|------------------------------------------|
E|------------------------------------------|

(Parte 4)

E|-15b17--15-12-15p12----12-----------------|
B|--------------------15----15-12-15p12-----|
G|--------------------------------------14--|
D|------------------------------------------|
A|------------------------------------------|
E|------------------------------------------|

E|------------------------------------------|
B|-12---------------------------------------|
G|----15p14p12----14p12----12---------------|
D|-------------14-------14----14-12~--------|
A|------------------------------------------|
E|------------------------------------------|

E|------------------------------------------|
B|------------------------------------------|
G|------------------------------------------|
D|-12b~~-12...------------------------------|
A|------------------------------------------|
E|------------------------------------------|

(Parte 5)

E|------------------------------------------|
B|-19b20--17----17~---19b20--17----17~------|
G|-----------19-----------------19----------|
D|------------------------------------------|
A|------------------------------------------|
E|------------------------------------------|

(Parte 6)

E|------------------------------------------|
B|-19b20--b20-b20-17-b20-b20-b20------------|
G|------------------------------------------|
D|------------------------------------------|
A|------------------------------------------|
E|------------------------------------------|

E|------------------------------------------|
B|-17-b20-b20-b20-17-20-20-20-17-20-20-20---|
G|------------------------------------------|
D|------------------------------------------|
A|------------------------------------------|
E|------------------------------------------|

E|-------------------------22--------...----|
B|-17-20-20-20-17-20-22b24----22b24~~...----|
G|------------------------------------------|
D|------------------------------------------|
A|------------------------------------------|
E|------------------------------------------|
Composição de Angus Young / Brian Johnson
Colaboración y revision:
546 reproducciones
    • ½ Tono
    • A
    • Bb
    • B
    • C
    • Db
    • D
    • Eb
    • E
    • F
    • F#
    • G
    • Ab
  • Adicionar à lista

    0 comentarios

    Ver todos os comentários
    00:00 / 00:00
    outros vídeos desta música
    repetir qualidade Automático
    Outros vídeos desta música
    00:00 / 00:00
    Automático
    Capítulos
    • Tocando Solo 1
    • Dicas Iniciais / Equipamentos
    • Primeiro Solo - Parte 1 de 5 (75 BPM)
    • Primeiro Solo - Parte 2 de 5 (75 BPM)
    • Primeiro Solo - Parte 3 de 5 (75 BPM)
    • Primeiro Solo - Parte 4 de 5 (75 BPM)
    • Primeiro Solo - Parte 5 de 5 (75 BPM)
    • Primeiro Solo - Parte 1 de 5 (60 BPM)
    • Primeiro Solo - Parte 2 de 5 (60 BPM)
    • Primeiro Solo - Parte 3 de 5 (60 BPM)
    • Primeiro Solo - Parte 4 de 5 (60 BPM)
    • Primeiro Solo - Parte 5 de 5 (60 BPM)
    • Dicas Segundo Solo
    • Tocando Solo 2
    • Segundo Solo - Parte 1 de 6 (75 BPM)
    • Segundo Solo - Parte 2 de 6 (75 BPM)
    • Segundo Solo - Parte 3 de 6 (75 BPM)
    • Segundo Solo - Parte 4 de 6 (75 BPM)
    • Segundo Solo - Parte 5 de 6 (75 BPM)
    • Segundo Solo - Parte 6 de 6 (75 BPM)
    • Segundo Solo - Parte 1 de 6 (60 BPM)
    • Segundo Solo - Parte 2 de 6 (60 BPM)
    • Segundo Solo - Parte 3 de 6 (60 BPM)
    • Segundo Solo - Parte 4 de 6 (60 BPM)
    • Segundo Solo - Parte 5 de 6 (60 BPM)
    • Segundo Solo - Parte 6 de 6 (60 BPM)
    • Encerramento
    • Ficha técnica
    OK