Cifra Club

Back In Black

AC/DC

Tab de bajo: Principal
Introdução 2x

Parte 1

G|--------------------------------------------|
D|--------------------------------------------|
A|---5-5-5-4-4-4------------------------------|
E|-0------------------------------------------|

Parte 2

G|--------------------------------------------|
D|--------------------------------------------|
A|---5-5-5-4-4-4--2---2-0-2-1-2-2-------------|
E|-0----------------4-------------------------|

Primeira parte 2x:

Back in black, I hit the sack 

Parte 1

G|--------------------------------------------|
D|--------------------------------------------|
A|---5-5-5-4-4-4------------------------------|
E|-0------------------------------------------|

Parte 2

G|--------------------------------------------|
D|--------------------------------------------|
A|---5-5-5-4-4-4--2---2-0-2-1-2-2-------------|
E|-0----------------4-------------------------|

Refrão

Cause I'm back! Yes, I'm back! 

Parte 1

G|--------------------------------------------|
D|--------------------------------------------|
A|--------------------------------------------|
E|-7-7-7-7-7-5-7--7-7-7-7-7-5-7---------------|

Parte 2

G|--------------------------------------------|
D|--------------------------------------------|
A|--------------------------------------------|
E|-0-5-5-5-5-3-5--5-5-5-5-5-3-5--5-0----------|

Parte 3

G|--------------------------------------------|
D|--------------------------------------------|
A|--------------------------------------------|
E|-7-5-7--7-7-7-7-7-5-7-----------------------|

Parte 4

G|--------------------------------------------|
D|--------------------------------------------|
A|--------------------------------------------|
E|-0-3--3-3-3-3-3--3-3-3-3-3------------------|

Parte 5

G|--------------------------------------------|
D|--------------------------------------------|
A|-3-4-5--5-5---------------------------------|
E|--------------------------------------------|

Segunda parte 2x:

Back in a band, I got a Cadillac 

Parte 1

G|--------------------------------------------|
D|--------------------------------------------|
A|---5-5-5-4-4-4------------------------------|
E|-0------------------------------------------|

Parte 2

G|--------------------------------------------|
D|--------------------------------------------|
A|---5-5-5-4-4-4--2---2-0-2-1-2-2-------------|
E|-0----------------4-------------------------|

Refrão

Cause I'm back! Yes, I'm back! 

Parte 1

G|--------------------------------------------|
D|--------------------------------------------|
A|--------------------------------------------|
E|-7-7-7-7-7-5-7--7-7-7-7-7-5-7---------------|

Parte 2

G|--------------------------------------------|
D|--------------------------------------------|
A|--------------------------------------------|
E|-0-5-5-5-5-3-5--5-5-5-5-5-3-5--5-0----------|

Parte 3

G|--------------------------------------------|
D|--------------------------------------------|
A|--------------------------------------------|
E|-7-5-7--7-7-7-7-7-5-7-----------------------|

Parte 4

G|--------------------5h7---------------------|
D|----------------5h7-------------------------|
A|-----------4--5-----------------------------|
E|-0-3--3-3-----------------------------------|

Solo de guitarra:

Parte 1(tocar 3x)

G|--------------------------------------------|
D|--------------------------------------------|
A|---5-5-5-4-4-4-------7-7-7------------------|
E|-0-------------0-0-0-------0-0--------------|

G|--------------------------------------------|
D|--------------------------------------------|
A|---5-5-5-4-4-4------------------------------|
E|-0-------------0-5-0-5----------------------|

Parte 2

G|--------------------------------------------|
D|--------------------------------------------|
A|---5-5-5-4-4-4-------7-7-7------------------|
E|-0-------------0-0-0-------0-0--------------|

Parte 3

G|--------------------------------------------|
D|--------------------------------------------|
A|---5-5-5-4-4-4------------------------------|
E|-0-------------0-5-0-5--5-0-----------------|

Refrão

Cause I'm back! Yes, I'm back! 

Parte 1

G|--------------------------------------------|
D|--------------------------------------------|
A|--------------------------------------------|
E|-7-7-7-7-7-7-7-7--7-5-7---------------------|

Parte 2

G|--------------------------------------------|
D|--------------------------------------------|
A|--------------------------------------------|
E|-0-5-5-5-5-3-5--5-5-5-5-5-3-5--5-0----------|

Parte 3

G|--------------------------------------------|
D|--------------------------------------------|
A|--------------------------------------------|
E|-7-5-7--7-7-7-7-7-5-7-----------------------|

Parte 4

G|--------------------------------------------|
D|--------------------------------------------|
A|--------------------------------------------|
E|-0-3--3-3-3-3-3--3-3-3-3-3------------------|

Parte 5

G|-----------5h7------------------------------|
D|-------5h7----------------------------------|
A|-3-4-5--------------------------------------|
E|--------------------------------------------|

Terceira parte:

Parte 1

G|--------------------------------------------|
D|--------------------------------------------|
A|--------------------------------------------|
E|-0-5-6-7------------------------------------|

Parte 2(toca 2x)

G|--------------------------------------------|
D|--------------------------------------------|
A|---5-4---4----------------------------------|
E|-0-----7---3-7-5-7-6-7-7--------------------|

Parte 3(toca 2x)

G|--------------------------------------------|
D|---5-4---4----------------------------------|
A|-0-----7---3-7-5-7-6-7-7--------------------|
E|--------------------------------------------|

Parte 4(toca 2x)

G|--------------------------------------------|
D|--------------------------------------------|
A|---5-4---4----------------------------------|
E|-0-----7---3-7-5-7-6-7-7--------------------|

Refrão

Parte 1

G|--------------------------------------------|
D|--------------------------------------------|
A|--------------------------------------------|
E|-7-7-7-7-7-5-7--7-7-7-7-7-5-7---------------|

Parte 2

G|--------------------------------------------|
D|--------------------------------------------|
A|--------------------------------------------|
E|-0-5-5-5-5-3-5--5-5-5-5-5-3-5--5-0----------|

Parte 3

G|--------------------------------------------|
D|--------------------------------------------|
A|--------------------------------------------|
E|-7-5-7--7-7-7-7-7-5-7-----------------------|

Parte 4

G|--------------------------------------------|
D|--------------------------------------------|
A|--------------------------------------------|
E|-0-3--3-3-3-3-3--3-3-3-3-3------------------|

Parte 5

G|--------------------------------------------|
D|--------------------------------------------|
A|-3-4-5--5-5---------------------------------|
E|--------------5-----------------------------|

Quarta parte final:

Parte 1

G|--------------------------------------------|
D|--------------------------------------------|
A|-7---5-5-5-4-4-4-------7-7-7----------------|
E|---0-------------0-0-0-------0-0------------|

G|--------------------------------------------|
D|--------------------------------------------|
A|---5-5-5-4-4-4------------------------------|
E|-0-------------0-5-0-5----------------------|

Parte 2

G|--------------------------------------------|
D|--------------------------------------------|
A|---5-5-5-4-4-4-------7-7-7------------------|
E|-0-------------0-0-0-------0-0--------------|

G|--------------------------------------------|
D|--------------------------------------------|
A|---5-5-5-4-4-4------------------------------|
E|-0-------------0-5-0-5----------------------|

Parte 3

G|-----------------------------7-8-9----------|
D|--------------------------------------------|
A|---5-5-5-4-4-4--------5-6-7-----------------|
E|-0-------------0-0-0------------------------|

G|--------------------------------------------|
D|--------------------------------------------|
A|-5-5-5-4-4-4--------------------------------|
E|-------------0-5-0-5------------------------|

Parte 4

G|--------------------------------------------|
D|--------------------------------------------|
A|---5-5-5-4-4-4-------7-7-7------------------|
E|-0-------------0-0-0-------0-0--------------|

G|--------------------------------------------|
D|--------------------------------------------|
A|---5-5-5-4-4-4------------------------------|
E|-0-------------0-5-0-5----------------------|
reproducciones 2.641

0 comentarios

mostrar más comentarios

¿Conseguiste tocar?

33 tocaron 2 aún no

¡Graba un vídeo tocando Back In Black y envianoslo!

00:00 / 00:00
outros vídeos desta música
repetir qualidade Automático
Outros vídeos desta música
00:00 / 00:00
Automático
Capítulos
  • Início
  • Tocando a música
  • Tocando Introdução e Primeira Parte
  • Ensinando Introdução e Primeira Parte
  • Tocando Refrão
  • Ensinando Refrão
  • Tocando Segundo Refrão
  • Ensinando Segundo Refrão
  • Tocando trecho do Solo de Guitarra
  • Ensinando linha (Solo de guitarra)
  • Tocando Terceiro Refrão
  • Ensinando Terceiro Refrão
  • Tocando Terceira Parte
  • Ensinando Terceira Parte
  • Tocando Quarto Refrão
  • Ensinando Quarto Refrão
  • Tocando Quarta Parte e Final
  • Ensinando Quarta Parte e Final
  • Encerramento
OK