Cifra Club

Aprenda

Cyberspace

AC/DC

Tablatura: Principal (guitarra)
tono: D
|------------------------------------------------------------------|
|--------------------------3---------------------------------------|
|--2-----------------------2-----------2-----------------------2---|
|--2-----------------------0-----------2-----------------------2---|
|--0-0-3-0---0-3-0---0-3---------------0--0-3-0---0-3-0---0-3--0---|
|----------3-------3----------------------------3-------3----------| repeat

Chorus    
   E                 G    A            E   A  D
|----------------|----------------|---------------|
|----------------|----------------|-----------3---|
|----------------|----------------|--------2--2---|
|------2---------|----5----2------|-----2--2--0---|
|------2---------|----5----2------|-----2--0------|
|(3-2)-0---------|----3----0------|-----0---------|

Composição de AC / DC
Colaboración y revision:
  • Taino Vieira
105 reproducciones
    • ½ Tono
    • A
    • Bb
    • B
    • C
    • Db
    • D
    • Eb
    • E
    • F
    • F#
    • G
    • Ab
  • Adicionar à lista

    0 comentarios

    Ver todos os comentários

    ¿Conseguiste tocar?

    0 Tocaram 0 Ainda não

    Grave um vídeo tocando Cyberspace e nos envie!

    00:00 / 00:00
    outros vídeos desta música
    repetir qualidade Automático
    Outros vídeos desta música
    00:00 / 00:00
    Automático
    OK