Cifra Club

D.T.

AC/DC

Tablatura: Versão 2 (guitarra)
tono: E
(Angus Young/Malcolm Young)


qualquer dúvida, me mande um e-mail

afinação: (EBGDAE)

>2 guitarras, uma com overdrive (solo; Angus Young) e a outra com distorção (base; Malcolm Young).
 
>as duas guitarras tocam sempre a mesma coisa, exceto onde indicado.

abaixo, os riffs da música, no final, os códigos utilizados nas tablaturas
boa sorte!!!

riff 1:
|----------------------------------|
|----------------------------------|
|---6--6--4--6/---9------6--3------|
|---6--6--4--6/---9--9---------4---|
|---4--4--4--4/------9-------------|
|----------------------------------|

riff 2:
|----------------|
|----------------|
|---6--6--4--6---|
|---6--6--4--6---|
|---4--4--4--4---|
|----------------|

riff 3:
|--------------------------------------------|
|--------------------------------------------|
|----------6-------------------4-------------|
|----------6---------4---------4---------4---|
|----------4---2-----4---------2---------4---|
|---2--4----------4--2---2--4------2--4--2---|

riff 4:
|----------------------|
|----------------------|
|---------6--6--4--6---|
|---------6--6--4--6---|
|---------4--4--4--4---|
|---1--3---------------|

ordem da música:
riff 1 - 4X
riff 2 - 4X
riff 3 - 2X
riff 4 - 1X
riff 2 - 2X
riff 3 - 2X
riff 1 - 4X - entra o solo...
riff 2 - 1X - falso fade out...
riff 1 - 10X - duas guitarras com som limpo

códigos:
/  - slide up
\  - slide down
~  - vibrato
h  - hammer on
p  - pull off
b  - bend
rb - release bend
t  - trill
x  - mute note
Composição de Angus Young / Brian Johnson / Malcolm Young
2 reproducciones
    • ½ Tono
    • A
    • Bb
    • B
    • C
    • Db
    • D
    • Eb
    • E
    • F
    • F#
    • G
    • Ab
  • Adicionar à lista

    0 comentarios

    Ver todos os comentários

    ¿Conseguiste tocar?

    0 Tocaram 0 Ainda não

    Grave um vídeo tocando D.T. e nos envie!

    00:00 / 00:00
    outros vídeos desta música
    repetir qualidade Automático
    Outros vídeos desta música
    00:00 / 00:00
    Automático
    OK