Cifra Club

Highway To Hell

AC/DC

Tablatura: Principal (guitarra)
Tom: D
Introdução: (Riff 1)

   A       D/F# G   D/F# G D/F# G  D/F# A
E|------------------------------------------|
B|-2-2-2----3-3-3----3-3-3--3-3-3---3---2-2-|
G|-2-2-2----2-2-0----2-2-0--2-2-0---2---2-2-|
D|-2-2-2----0-0-0----0-0-0--0-0-0---0---2-2-|
A|-0-0-0--------------------------------0-0-|
E|----------2-2-3----2-2-3--2-2-3---2-------|


Primeira Parte:

(Riff 1)

Living easy
Livin' free
Season ticket on a one way ride
Asking nothing
Leave me be
Taking everything in my stride

Don't need reason
Don't need rhyme
Ain't nothin' that I’d rather do
Going down
Party time
                      E5
My friends are gonna be there too


Primeiro Refrão:

            A          D/F#  ( G  D )
I'm on the highway to hell
        A          D/F#  ( G  D )
On the highway to hell
 A          D/F#  ( G  D )
Highway to hell
            A          D/F#
I'm on the highway to hell


Segunda Parte:

(Riff 1)

No stop signs
Speed limit
Nobody's gonna slow me down
Like a wheel
Gonna spin it
Nobody's gonna mess me 'round

Hey, Satan!
Payin' my dues
Playin' in a rockin' band
Hey mama! 
Look at me
                       E5
I'm on my way to the promise land


Segundo Refrão:

            A          D/F#  ( G  D )
I'm on the highway to hell
 A          D/F#  ( G  D )
Highway to hell
            A          D/F#  ( G  D )
I'm on the highway to hell
 A          D/F#
Highway to hell

D  D4  D
         Don't stop me!

( D  D4  D  D4  D  D4 )


Solo: A  G  D

E|-----5-5-----5-5-----5-5-----5-5-----5-5-------------|
B|-----5-5-----5-5-----5-5-----5-5-----5-5-------------|
G|-7b9-----7b9-----7b9-----7b9-----7b9-----------------|
D|-----------------------------------------------------|
A|-----------------------------------------------------|
E|-----------------------------------------------------|

E|-----------------------------------------------------|
B|-7b¼rb---5-------------------------------------------|
G|-7b¼rb---5---7-5b6r5---------------------------------|
D|-----------7------------7-b5r4b----2-------7~--------|
A|-------------------------------------3/4-------------|
E|-----------------------------------------5-----------|

E|------5----------------------------------------------|
B|--------5-----------------5---5b¼~-------------------|
G|-5b6------4b5r4-----------5---5b¼~-------------------|
D|----------------7~-4b--x----x--------7~--5---5h7-----|
A|-----------------------x----x--------------7---------|
E|-----------------------------------------------------|

E|-5---------------------------------------------------|
B|---5---------10~\------------------------------------|
G|-----5---5/9-----------------------------------------|
D|-------7---------------------------------------------|
A|-----------------------------------------------------|
E|-----------------------------------------------------|


Final:

            A          D/F#  ( G  D )
I'm on the highway to hell
            A          D/F#  ( G  D )
I'm on the highway to hell
            A          D/F#  ( G  D )
I'm on the highway to hell
            A      D/F#  ( G  D )
I'm on the highway


( A  D/F#  G  D )


(Lick 1)

E|-14b16r14b----12-------------------------------------|
B|------------------14---------------------------------|
G|----------------------14--14-14~---------------------|
D|-----------------------------------------------------|
A|-----------------------------------------------------|
E|-----------------------------------------------------|

(Lick 2)

E|-12--------------------------------------------------|
B|-13b14-----------------------------------------------|
G|--------14~~-----------------------------------------|
D|-----------------------------------------------------|
A|-----------------------------------------------------|
E|-----------------------------------------------------|

(Lick 3)

E|----------------15-----------------------------------|
B|-15b17r15b17-------15b17~~---------------------------|
G|-----------------------------------------------------|
D|-----------------------------------------------------|
A|-----------------------------------------------------|
E|-----------------------------------------------------|

(Lick 4)

E|-12-------12-------12--------------------------------|
B|-13b14----13b14--------------------------------------|
G|----------------------14~----------------------------|
D|-----------------------------------------------------|
A|-----------------------------------------------------|
E|-----------------------------------------------------|

(Lick 5)

E|-12-------12----------15b17--------------------------|
B|-13b14----13b14--------------------------------------|
G|-------------------14--------------------------------|
D|-----------------------------------------------------|
A|-----------------------------------------------------|
E|-----------------------------------------------------|

(Lick 6)

E|-12h15p12h15p12h15p...-------------------------------|
B|-----------------------------------------------------|
G|-----------------------------------------------------|
D|-----------------------------------------------------|
A|-----------------------------------------------------|
E|-----------------------------------------------------|
reproducciones 54.719
Acordes para:
    Composição: Angus Young / Bon Scott / Malcolm Young Colaboración y revision:

    0 comentarios

    mostrar más comentarios

    ¿Conseguiste tocar?

    363 tocaron 15 aún no

    ¡Graba un vídeo tocando Highway To Hell y envianoslo!

    00:00 / 00:00
    outros vídeos desta música
    repetir qualidade Automático
    Outros vídeos desta música
    00:00 / 00:00
    Automático
    Capítulos
    • Tocando a música
    • Dicas Iniciais / Equipamentos
    • Acordes da Introdução
    • Tocando a Introdução
    • Riff Principal
    • Acordes da Primeira Parte
    • Tocando a Primeira Parte
    • Primeira Parte
    • Acordes do Refrão
    • Tocando o Primeiro Refrão
    • Ritmo do Refrão
    • Acordes do Segundo Refrão
    • Tocando Segunda Parte - Solo
    • Ritmo do Segundo Refrão
    • Solo - Parte 1 de 3
    • Solo - Parte 2 de 3
    • Solo - Parte 3 de 3
    • Tocando o Final
    • Final - Lick 2
    • Final - Lick 1
    • Final - Lick 3
    • Final - Lick 4
    • Final - Lick 5
    • Final - Lick 6
    • Encerramento
    • Ficha Técnica
    OK