Cifra Club

Aprenda

Love bomb

AC/DC

Tablatura: Principal (guitarra)
tono: G
/:Slide ~: Vibrato x: muted string

Intro: Malcolm
-------------------------------------------------------
-------------------------------------------------------
------2-----4------2-----------------------------------
--4---2--2--4---4--2--2-2------------------------------
--4---0--2--2---4--0--2-2------------------------------
--2------0------2-----0-0------------------------------

Intro: Angus
----5/7-5~~------------5/7-5~~-------------------------
-------------5-5/7~~-------------5~-5~~~let-ring-------
-------------------------------------------------------
-------------------------------------------------------
-------------------------------------------------------
-------------------------------------------------------

Verse:
-------------------------------------------------------
-------------------------------------------------------
---2--4--4--2--2--4---2--4--4--2--2--4-----------------
---2--4--4--2--2--4---2--4--4--2--2--4-----------------
---0--2--2--0--0--2---0--2--2--0--0--2-----------------
-------------------------------------------------------

"Cruisin' the sky, let's fly"
--------------------------------------------------------
---------3--------------------3-------------------------
-----2---2--2-----4-------2---2-2-----------------------
--4--2---0--2--2--4----4--2---0-2--2--------------------
--4--0------0--2--2----4--0-----0--2--------------------
--2------------0-------2-----------0--------------------

                      To 2nd verse:
---------------------------------------------------------------------
----------------------------------9-5-0-7~~--------------------------
--2-2-2-------2-2-2-------4-4-4-------------2-4-4-2-2-4--------------
--2-2-2-2-2-2-2-2-2-2-2-2-4-4-4-------------2-4-4-2-2-4----2---------
--0-0-0-2-2-2-0-0-0-2-2-2-2-2-2-------------0-2-2-0-0-2----2---------
--------0-0-0-------0-0-0----------------------------------0---------

Chorus:
------------3-------------------3----------------------
--9-5-0-7~--3--3------9-5-0-7~--3--3-------------------
---------------2--2----------------2-------------------
---------------0--2----------------0--2----------------
------------x-----0-------------x-----2----------------
------------3-------------------3-----0----------------
Composição de A. Young
125 reproducciones
    • ½ Tono
    • A
    • Bb
    • B
    • C
    • Db
    • D
    • Eb
    • E
    • F
    • F#
    • G
    • Ab
  • Adicionar à lista

    0 comentarios

    Ver todos os comentários

    ¿Conseguiste tocar?

    0 Tocaram 0 Ainda não

    Grave um vídeo tocando Love bomb e nos envie!

    00:00 / 00:00
    outros vídeos desta música
    repetir qualidade Automático
    Outros vídeos desta música
    00:00 / 00:00
    Automático
    OK