Cifra Club

Problem Child

AC/DC

Tablatura: Principal (guitarra)
Tom: G
E|------(8x)---------|-(4x)----|-(4x)---|-----|------(2x)----|-----|---(2x)----|-------------|
B|-------------------|---------|--------|-----|--------------|-----|-----------|-------------|
G|-2---------2---0---|-0---2---|--------|--0--|------0----2--|-----|-----0---2-|-------------|
D|-0---2-----0---0---|-0---0---|-2------|--0--|-2---------0--|--0--|-2---x---0-|-------------|
A|-----0---------x---|-x-------|-0---2--|--2--|-0----3-------|-----|-0---3-----|-------------|
E|---------------3---|-3-------|-----0--|-----|--------------|--3--|-----------|-0-0-0-0-0-0-|

E|------(6x)---------|-(4x)---|-(4x)---|-----|------(2x)----|-----|---(2x)----|----------------|
B|-------------------|--------|--------|-----|--------------|-----|-----------|----------------|
G|-2---------2---0---|-0---2--|--------|--0--|------0----2--|-----|-----0---2-|----------------|
D|-0---2-----0---0---|-0---0--|-2------|--0--|-2---------0--|--0--|-2-------0-|-2--0-----------|
A|-----0---------x---|-x------|-0---2--|--2--|-0----3-------|-----|-0---3-----|-0--x--2--------|
E|---------------3---|-3------|-----0--|-----|--------------|--3--|-----------|----3--0-0-0-0-0|

E|-----(4x)----|----(4x)----|-------------|
B|-------------|------------|-------------|
G|-----2-------|-2---0------|-------------|
D|-4---0---2---|-0---x---2--|-------------|
A|-2-------0---|-----3---0--|-2--2--2--2--|
E|-------------|------------|-0--0--0--0--|

E|------(8x)---------|-(4x)----|-(4x)---|-----|------(2x)----|-----|---(2x)----|
B|-------------------|---------|--------|-----|--------------|-----|-----------|
G|-2---------2---0---|-0---2---|--------|--0--|------0----2--|-----|-----0---2-|
D|-0---2-----0---0---|-0---0---|-2------|--0--|-2---------0--|--0--|-2---x---0-|
A|-----0---------x---|-x-------|-0---2--|--2--|-0----3-------|-----|-0---3-----|
E|---------------3---|-3-------|-----0--|-----|--------------|--3--|-----------|

E|------------------|------------------|-----(4x)-----|
B|----------0-------|------------------|--------------|
G|-0--------0-------|-----0---2--------|------0---2---|
D|-0---2----x---2---|-2---x---0-----0--|-2----x---0---|
A|-x---0----3---0---|-0---3---------x--|-0----3-------|
E|-3----------------|---------------3--|--------------|

E|-----(26x)----------|---------------------|
B|---------------0----|---------------------|
G|-----------2--------|---------------------|
D|-2---4-----0---2----|-4-4-4-4-4-4-4-4-4---|
A|-0---2--------------|-2-2-2-2-2-2-2-2-2---|
E|--------------------|---------------------|
reproducciones 336
Acordes para:
    Composição: Angus Young / Bon Scott / Malcolm Young Colaboración y revision:
    • Bruno Meneses

    0 comentarios

    mostrar más comentarios

    ¿Conseguiste tocar?

    1 tocaron 1 aún no

    ¡Graba un vídeo tocando Problem Child y envianoslo!

    00:00 / 00:00
    outros vídeos desta música
    repetir qualidade Automático
    Outros vídeos desta música
    00:00 / 00:00
    Automático
    OK