Cifra Club

Rock And Roll Ain't Noise Pollution

AC/DC

Tablatura: Principal (guitarra)
Tom: A
[Intro]

E|-----------------------------|
B|-0-2-3-2-2-3-----------------|
G|-1-2-4-2-2-4-----------------|
D|-----------------------------|
A|-----------------------------|
E|-------------3b-0------------|

E|-----------------------------|
B|-0-2-3-2-2-------------------|
G|-1-2-4-2-2----9--------------|
D|--------------9--------------|
A|--------------7--------------|
E|-----------3-----------------|

[Verso]

E|-----------------------------|
B|-----------------------------|
G|---------2-------2-----------|
D|---------2-4-5-4-2-----------|
A|-2-4-5-4-0-0-0-0-0-----------|
E|-0-0-0-0---------------------|

[Pré-Refrão]

            E5                D5
We're just talkin' about the future
    B5            E5
Forget about the past
      E5         D5
It'll always be with us
      A5
It's never gonna die, never gonna die

[Refrão]

E|-----------------------------|
B|-0-2-3-2-2-3-----------------|
G|-1-2-4-2-2-4-----------------|
D|-----------------------------|
A|-----------------------------|
E|-------------3b-0------------|

E|-----------------------------|
B|-0-2-3-2-2-------------------|
G|-1-2-4-2-2----9--------------|
D|--------------9--------------|
A|--------------7--------------|
E|-----------3-----------------|

[Verso]

E|-----------------------------|
B|-----------------------------|
G|---------2-------2-----------|
D|---------2-4-5-4-2-----------|
A|-2-4-5-4-0-0-0-0-0-----------|
E|-0-0-0-0---------------------|

[Pré-Refrão]

            E5                D5
We're just talkin' about the future
    B5            E5
Forget about the past
      E5         D5
It'll always be with us
      A5
It's never gonna die, never gonna die

[Refrão]

E|-----------------------------|
B|-0-2-3-2-2-3-----------------|
G|-1-2-4-2-2-4-----------------|
D|-----------------------------|
A|-----------------------------|
E|-------------3b-0------------|

E|-----------------------------|
B|-0-2-3-2-2-------------------|
G|-1-2-4-2-2----9--------------|
D|--------------9--------------|
A|--------------7--------------|
E|-----------3-----------------|

[Solo]

E|----------------------------------------------------------------------------|
B|----------------2-3---2-2-------5------/8--8--8----------9-9\-------9-9\-x-x|
G|-2(4)2--x--4----3-4---2-2--/6-------6--/9--9--9--9-9--9----9\-------9-9\-x-x|
D|--------x--------------------------------------------------9\-/11-9---9\-x-x|
A|--------x-------------------------------------------------------------------|
E|--------x-------------------------------------------------------------------|

E|----------------------------------------------------------------------------|
B|--------------12-----------------------------15---------------15------------|
G|---14(16)--------12---12-----12\-----14(16)-----(16)-14-12-14---------------|
D|-------------------------14--12\----------------------------------14-12-----|
A|----------------------------------------------------------------------------|
E|----------------------------------------------------------------------------|
                                                  b
E|-12-12-15\--------------------15-15-14-14-14-12-----------------------------|
B|-12-12-14\-----15--15------15-15-15-15-15-15-12-15------15---15--15---------|
G|---------------14-(15)-----16-16-16-16-16-16----15(16)-(16)-(16)(16)14-12---|
D|----------------------------------------------------------------------------|
A|----------------------------------------------------------------------------|
E|----------------------------------------------------------------------------|
                                                     h
E|----------------------------------------------------------------------------|
B|-15-15--------15------15-15-------------15---15---------------------17------|
G|-14-12--------14(16)-(16)14(16)---14-12-14---12----------------x---------18-|
D|-------14-12-------------------------------14-----14-14---------------------|
A|----------------------------------------------------------------------------|
E|----------------------------------------------------------------------------|

E|--------------------------------------------19------------------------------|
B|-17---17--\------19--------------17--19(21)-----(21)-19-17-19----17-----x-20|
G|--------------18(20)--18--16--18------------------------------18----18--x-19|
D|----------------------------------------------------------------------------|
A|----------------------------------------------------------------------------|
E|----------------------------------------------------------------------------|
               h
E|----------------------------------------------------------------------------|
B|------17---17----------------22(24)------------(24)--(24)-(24)-(24)-(24)----|
G|---------------------------------------------22(23)-------------------------|
D|----------------------------------------------------------------------------|
A|----------------------------------------------------------------------------|
E|----------------------------------------------------------------------------|
                                                            h
E|----------------------------------------------------------------------------|
B|----(24)-(24)-(24)-(24)-(24)-(24)-(24)-(24)-(24)-(24)-(24)-(24)\------------|
G|----------------------------------------------------------------------------|
D|----------------------------------------------------------------------------|
A|----------------------------------------------------------------------------|
E|----------------------------------------------------------------------------|
reproducciones 1.167
Acordes para:
    Composição: Angus Young / Brian Johnson / Malcolm Young Colaboración y revision:
    • Marcos Paulo
    • Lucas Souza

    0 comentarios

    mostrar más comentarios

    ¿Conseguiste tocar?

    11 tocaron 1 aún no

    ¡Graba un vídeo tocando Rock And Roll Ain't Noise Pollution y envianoslo!

    00:00 / 00:00
    outros vídeos desta música
    repetir qualidade Automático
    Outros vídeos desta música
    00:00 / 00:00
    Automático
    OK