Cifra Club

Ruff Stuff

AC/DC

Tablatura: Principal (guitarra)
Tom: B
Eb---------------------------------|
Bb---------------------------------|
Gb---------------------------------|
Db---------------------------------|
Ab---0-4-5-4-2--0-4-0-5-----0-4-5--|
Eb---------------------------------|

guitar 2
b----------------------------------|
b----------------------------------|
b----------------------------------|
b-----------------7---7------------|
b-----------------4---5------------|
b----5-----------------------------|


Eb---------------------------|
Bb---------------------3-----|
Gb----------------2----2-----|
Db----------------2----0-----|
Ab----------------0----------|
Eb---------------------------|
   "gimmie that ruff stuff"

  Riff
                guitar 1
        Eb---------------------|
        Bb---5--7--5--7--5-5-7-|
        Gb---6--7--6--7--6-6-7-|
        Db---7--7--7--7--7-7-7-|
        Ab---------------------|
        Eb---------------------|
                guitar 2
        Eb---------------------|
        Bb------3-----3--------|
        Gb---2--2--2--2---2----|
        Db---2--0--2--0---2----|
        Ab---0-----0------0-4-5|
        Eb---------------------|

pre chorus

Eb--------------------------------------|--------------|
Bb--------------------------------------|--------------|
Gb----9-------------7-------------------|--------------|
Db----9-------------7-------------------|---5----------|
Ab----7-------------5-5-5-5-5-5-5-5-5---|---5----------|
Eb----0-0-0-0-0-0-----------------------|---3----------|

Chorus

Eb----------------------------------------||
Bb------------------3---------------------||
Gb-------------2----2---------------------||
Db-------------2----0---------------------||
Ab-------------0---------0-4-5-4-0--------||
Eb---------------------------------3-5----||
  gimme that ruff stuff

        Eb----------------------------------------|
        Bb----------------------------------------|
        Gb----------------------------------------|
        Db----------------------------------------|
        Ab----------------------------------------|
        Eb--0--3----------------------------------|
        "dont want yoru face around here"

SOLO                             repeat            
Eb----------------------------------------| |-------------------------------------------------|
Bb-----/-8-8-8-8--8-----/-8--8-8-8-8------| |-------------------------------------------------|
Gb-----/-9-9-9-9--9--7--/-9--9-9-9-9--7---| |---------<7>-<9>--------------<7>-<5>------------|
Db-------------------7----------------7---| |-----5-<7>------<7>~~---5-<7>--------------------|
Ab----------------------------------------| |-------------------------------------<7>~~~~~----|
Eb----------------------------------------| |-------------------------------------------------|

Eb----------------------------------------------------------------------------5-5-5-5---5-5-5-5|
Bb-----------------------------------------------------7-7-5~~------------/7--5-5-5-5---5-5-5-5|
Gb------7---<7>--5----<7>--5---------------5---5-7b-r--7-7-5~~------------/7----------7--------|
Db--5-7------7--<5>-7--7--<5>--7--------5-----------------------0-5--7-7-----------------------|
Ab------------------7----------7---5--7--------------------------------------------------------|
Eb---------------------------------------------------------------------------------------------|

Eb---------15-15----15--------------------------------------------------12---------------------|
Bb-/--15---------17--------------------------------------------------12---12-15-12---10--8-----|
Gb------------------------------5---------------5----------------5-------------------------9~~-|
Db------------------------0-5-7-----------0-5-7------------0-5-7-------------------------------|
Ab-------------------------------<5>~~~--------------------------------------------------------|
Eb-------------------------------------------------5~~~----------------------------------------|

Eb---------------------------12-----------------------------------5----------------------------|
Bb--/5-/7---------17b--15b-----15b----------------------------5-7---8-6-5----------------------|
Gb--/5-/7---/9----------------------12/14~~~~----------5----5--------------6-7-6-5---7---------|
Db--------7--------------------------------------7--7------------------------------6----/------|
Ab---------------------------------------------------------------------------------------------|
Eb---------------------------------------------------------------------------------------------|

Eb----------12-15b-12-15-15b-------------------------------------------------------------------|
Bb---15~~~-------------------------------------------------------------------------------------|
Gb---------------------------------------------------------------------------------------------|
Db-----------------------------7~~~~~~~~~~~~~~~~~~~~~~~~~~~~~~~~~~~~~~~~~~~~~~~~~~~feed-back---|
Ab---------------------------------------------------------------------------------------------|
Eb---------------------------------------------------------------------------------------------|

Eb---------------------------------||----------------------------------------------------------|
Bb---------------------------------||----------------------------------------------------------|
Gb---------------------------------||----------------------------------------------------------|
Db---------------------------------||----play-chorus-------------------------------------------|
Ab--0--4--5--4--0--2--4~~~~~~~~~---||----------------------------------------------------------|
Eb---------------------------------||----------------------------------------------------------|


second solo
Eb---------------------------------------<15>--------------15-15-14-12-----17-17^15------------|
Bb---------12--15-15-15----12------------------------------17-17-15-14--------------17--15-----|
0b---12-14-----14-14----14------------------------14-12----------------------------------------|
Db-----------------------------------<0>-------------------------------------------------------|
Ab---------------------------------------------------------------------------------------------|
Eb---------------------------------------------------------------------------------------------|

Eb---15--17b--15--17b----15^12------------17b-17b~~~--17br-15---/22-~~~~~~~--------------------|
Bb-----------------------------15-15~~------------------------15-------------------------------|
Gb---------------------------------------------------------------------------------------------|
Db---------------------------------------------------------------------------------------------|
Ab---------------------------------------------------------------------------------------------|
Eb---------------------------------------------------------------------------------------------|
                                                                     "dont want your face.....
end bit                                                          
Eb-------------------------------------------------------------------------(5-5-5-5-5)-----22b-|
Bb-------------------------------------------------------------------------(5-5-5-5-5)---------|
Gb-------------------------5-----------------------------------------5-----2-2-2-2-2-2-2-2-----|
Db-----------------4---7-------------------------------------4---7---------2-2-2-2-2-2-2-2-----|
Ab------------------------------5~~~~~~~~~~~~~-----------------------------0-0-0-0-0-0-0-0-----|
Eb---------------------------------------------------------------------------------------------|
  around here.....                              "dont..here"





0r in standard tuning (not shore where this tab came from)
solos the same, just do it one step forward eg..-4- would become -5-!

e:--------------------------|-------|
B:--------------------------|-------|
G:--------------------------|----6--|
D:--------------5--6--------|-6--6--|
A:---3-4-3------3--4----3-4-|-6--4--|
E:-4-------6-4--------4-----|-4-----|

Fig 1              Fig 2
 G# C# G# C# G#C#   Eb   C#   F#
------------------|----|---------|
------------------|----|---------|
----6-----6----6--|-8--|-6-------|
-6--6--6--6--6-6--|-8--|-6----4--|
-6--4--6--4--6-4--|-6--|-4----4--|
-4-----4-----4----|----|------2--|


 Riff 2
   G# C#                   G# C#                 G# C# F# 
e:---------------------|---------------------|----------|
B:---------------------|---------------------|----------|
G:----6----------------|----6----------------|----6-----|
D:-6--6----------------|-6--6----------------|-6--6--4--|
A:-6--4----3-4-3-------|-6--4----3-4-3-------|-6--4--4--|
E:-4-----4-------6-2-4-|-4-----4-------6-4-2-|-4-----2--|
  P1-------------------| P2------------------| P3-------|

                                     3x
  Fig 3        Fig 4                /  \
   G#           G#  C#  Eb  C#  G#  C C#
e:------------|---------------------------|
B:------------|--I have no idea-----------|
G:------------|---------------------------|
D:-6----6--6--|---------------------------|
A:-6----6--6--|---------------------------|
E:-4----4--4--|---------------------------|


 Fig 5
   C  C# C  C# C C#         C#        G#
e:------------------|---------|---------|-----|
B:------------------|---------|---------|-----|
G:-5--6--5--6--5-6--|-----4-6-|-----4---|-----|
D:-5--6--5--6--5-6--|-5-6---6-|-5-6---6-|-6---|
A:-3--4--3--4--3-4--|-------4-|-------6-|-6---|
E:------------------|---------|-------4-|-4---|
reproducciones 126
Acordes para:

    0 comentarios

    mostrar más comentarios

    ¿Conseguiste tocar?

    0 tocaron 0 aún no

    ¡Graba un vídeo tocando Ruff Stuff y envianoslo!

    00:00 / 00:00
    outros vídeos desta música
    repetir qualidade Automático
    Outros vídeos desta música
    00:00 / 00:00
    Automático
    OK