Cifra Club

That's The Way I Wanna Rock 'N' Roll

AC/DC

Cifrado: Principal (guitarra y guitarra eléctrica)
tono: A
album () musica (

Riff 1
E---------------|-----------------|----------------|
B---------------|-----------------|-------./.------|
G---------------|-----------------|-------./.------|
D---2-----------|-2---------------|-------./.------|
A---0-0-4-5-7-0-|-0-0-4-5-6-7-0---|-------./.------|
E---------------|-----------------|----------------|repeat

|---------------|
|---------------|
|------5--7-----|
|------5--7-----|
|---0--3--5-----|
|---------------|

Rythem (With the above riff over it)
|------3-------------|
|------3----3----3---|
|-2----0----2----0---|
|-2----0----0----0---|
|-0------------------|
|------3----2----3---|

pre chorus
E|-----------|-------------|-----------|-------------|-----------|
B|-----------|-------------|---3-3-3---|-------------|---3-3-3---|
G|---2-2-2---|-------------|---0-0-0---|-------------|---2-2-2---|
D|---2-2-2---|-------------|---0-0-0---|-------------|---0-0-0---|
A|---0-0-0---|---4-5-6-7-0-|-----------|---4-5-6-7-0-|-----------|
E|-----------|-------------|---3-3-3---|-------------|---2-2-2---|
  "roll roll roll"

E--------------|-----------|-------------|--------------|
B--------------|---3-3-3---|-------------|--------------|
G--------------|---0-0-0---|-------------|----2------()-|REAPEAT RIFF1
D--------------|---0-0-0---|-------------|----2------()-|
A----4-5-6-7-0-|-----------|---4-5-6-7-0-|----0------()-|
E--------------|---3-3-3---|-------------|--------------|

CHORUS

e:-----------------------------------------|---------------------|
B:-----------------------------------------|---------------------|
G:---5---7-5---7-5-7---10-7---7-10-10-10---|-2-------------------|
D:---5---7-5---7-5-7---10-7---7-10-10-10---|-2-------------------|
A:---3---5-3---5-3-5---8--5---5--8--8--8---|-0-------------------|
E:-----------------------------------------|---------------------|
   "blow up my video..."                     "thats the way....."

SOLO
|-----5^------------------------------------|-----------|---3^--3---------------------|------------|
|---------5-8-5-8-----5---------------------|-----------|--------5-3-5-3--------------|------------|
|-----------------5-7---5-7-5---------------|-----------|---------------4-2-0---0-----|------------|
|-----------------------------5-7-5--7~~~~--|-----------|---------------------2-0-----|------------|
|----------------------------------7--------|-----------|-----------------------------|------------|
|-------------------------------------------|-----------|------------------------3~~~~|------------|

|-------------------------------------------|-----------|---------15------------------|------------|
|--3^---5~~-3----/7~~5----9^~---------------|-----------|---15-17----15-17------------|------------|
|--3^---5~~-3----/7~~5----9^~----7----------|-----------|-----------------16-14-------|------------|
|-----5-------5--------7-9---7-9------------|-----------|-----------------------------|------------|
|-------------------------------------------|-----------|-----------------------------|------------|
|-------------------------------------------|-----------|-----------------------------|------------|

|---------------------------15-17b----------|-----------|-----------------------------|------------|
|-15-12----12-15-15-12---12-----------------|-----------|-----------------------------|------------|
|-------14-------------14-------------------|-----------|-----------------------------|------------|
|-------------------------------------------|-----------|-----------------------------|------------|
|-------------------------------------------|-----------|-----------------------------|------------|
|-------------------------------------------|-----------|---------5~~~~~~~~~~~~~------|------------|

|-----------------------------5------------------------/5^~~~---------5-8----5-8-----5-8--8--------|
|-----------------------------5-7-5-------------------------------5-8----5-8-----5-8-----5---------|
|-------------------------------7-5----------------------------------------------------------------|
|------7-\-----7-\------7~~~\----------------------------------------------------------------------|
|--------------------------------------------------------------------------------------------------|
|--------------------------------------------------------------------------------------------------|

solo riff
e:----------------------------|----------------------------|
B:----------------------------|----------------------------|
G:----------------------------|----------------------------|
D:----------------------------|-----2-3-5-----2-2-3-4-5----|
A:-0-0-4-5-7-0---4-4-5-6-7-0--|-3-3-------3-------------3--|
E:----------------------------|----------------------------|
   2x-------------------------|

e:------------------------------|---------------------------|
B:------------------------------|---------------------------|
G:------------------------------|---------------------------|
D:---------2-------------0-2----|-----2-3-5-----2-2-3-4-5---|
A:-0-0-3-4---0---0-3-3-4-----0--|-3-3-------3-------------3-|
E:------------------------------|---------------------------|

                                A
e:----------------------------|-----|
B:----------------------------|-----|
G:----------------------------|-2---|
D:-0-0-4-5-7-0---4-4-5-6-7-0--|-2---|
A:----------------------------|-0---|
E:----------------------------|-----|

End solo
|--8b-8b-8b-------8-5-----5--------------|
|---------------------8-5---8-5----------|
|-------------------------------7-5------|
|-----------------------------------5-7--|
|-------------------------------------7--|
|-------------------------------------5--|
00:00 / 00:00
Otros videos de esta canción
Repetir
Otros videos de esta canción
Composición de Angus Young / Brian Johnson / Malcolm Young / Patty Griffin / Sergio George / Steve Rothery
459 exhibiciones
    • ½ Tono
    • A
    • Bb
    • B
    • C
    • Db
    • D
    • Eb
    • E
    • F
    • F#
    • G
    • Ab
  • Agregar a la lista
    00:00 / 00:00
    OK