Cifra Club

Aprenda

This House Is On Fire

AC/DC

Tablatura: Principal (guitarra)
tono: C
Main Riff/Intro
g1
E-----------------------------------------|
B-----------------------------------------|
G-------7~~~~~----7~~~~~---5---3--5-------|
D-0^3/5---------5--------3---3------------|
A-----------------------------------------|
E-----------------------------------------|\
g2 enter 2nd time                           reapeat
E-----------------------------------------|/
B-----------------------------------------|
G-----------------------------------------|
D-----------------------------------------|
A--------5-------5-----------3--1--1--3---|
E------3-------3----------3---------------|

pre chorus
    Guitar 1
        E------------------------|---------------------|
        B------------------------|---------------------|
        G---7------5-7-5-7--5----|--------3-------3----|
        D---7------5-7-5-7--5----|---3----3-------3----|
        A---5------5-5-5-5--5----|---3----1--3-3--1-3--|
        E------------------------|---1-------1-1----1--|
    Guitar 2
        E---2------3-3-2-3--2----|---------------------|
        B---3------3-3-3-3--3----|---1----3--1-1--3-1--|
        G---2------2-2-2-2--2----|---2----3--2-2--3-2--|
        D---0------0-0-0-0--0----|---3----3--3-3--3-3--|
        A------------------------|---------------------|
        E------------------------|---------------------|

chorus
E|------------------------------|
B|------------------------------|
G|------------------------------|
D|------------------------------|
A|---5--5--5--5--5------1-3~~---|
E|-6-3--6--3--6--3--0-3---------|

E|------------------------------------------
B|------------------------------------------
G|---------------------------3-------3------
D|--3-3-3-3-3-3-3-3-3-3-3-3--3--3-3--3-3----
A|--3-3-3-3-3-3-3-3-3-3-3-3--1--3-3--1-3----
E|--1-1-1-1-1-1-1-1-1-1-1-1--1--1-1----1----

E|--------------------------3b~~~~~--3-5^3---3-------------------------------------------------|
B|-----------------------------------------5--3--3-----------------/6.--3-6-3---3--------------|
G|----------------3-x-x-5----------------------5---3--------------------------5---5-3---3-----5|
D|---3-5-5~~~~~---3-x-x-5---------------------------5----<8>--5-----------------------5-----3--|
A|----------------1-x-x-3----------------------------------------------------------------------|
E|---------------------------------------------------------------------------------------------|

E|-----------------------<10>-----------10-10---------------------------------------15---------|
B|--3b--------------<10>----------------12b12b---------/15b--12-15-15-15-15---15-17^15--12-15-15~~
G|------3^5^3-----------------\-/12~~-----------12~~~\-----------------------------------------|
D|------------5--------------------------------------------------------------------------------|
A|---------------------------------------------------------------------------------------------|
E|---------------------------------------------------------------------------------------------|

E|------------------------------------------20-17------15-15-15-x-15-23~~~--||
0|--15^12---------12-15-12-12---12-14-15b---------20------------------------||
G|--------12~~~---12-14-12-12---12-14---------------------------------------||
D|------------------------------12-14---------------------------------------||
A|--------------------------------------------------------------------------||
E|--------------------------------------------------------------------------||

Solo 2, ending
E|--------------------------15-------------------------15-15----15----15----15-15-b~~~---------|
B|---/12-15b-15^12-15~~~-------------------------------------17----17----17--------------------|
G|--------------------------12~~~------17b~~---------------------------------------------------|
D|----------------------------------17---------------------------------------------------------|
A|---------------------------------------------------------------------------------------------|
E|---------------------------------------------------------------------------------------------|

E|--15-15-12----------------------15-15-12-15~~15----15~~~~~--\--------------------------------|
B|-----------15-12-----12b\-----------------------17---------------5---------------------------|
G|-----------------12----------------------------------------------5---------------------------|
D|-----------------------------------------------------------------5---------------------------|
A|-----------------------------------------------------------------3---------------------------|
E|---------------------------------------------------------------------------------------------|
                                              G1     G2
E|------------------------------------------|--3--|--------||
B|--3b--3-0-------------------------0-------|--3--|--------||
G|----------2-0-2-------------------5b~~----|--0--|--------||
D|----------------2-0---0-------------------|--0--|---5-\--||
A|--------------------2---2-3-2-------------|-----|---5-\--||
E|------------------------------3-----------|--3--|---3-\--||
Composição de Angus Young / Brian Johnson / Malcolm Young
110 reproducciones
    • ½ Tono
    • A
    • Bb
    • B
    • C
    • Db
    • D
    • Eb
    • E
    • F
    • F#
    • G
    • Ab
  • Adicionar à lista

    0 comentarios

    Ver todos os comentários

    ¿Conseguiste tocar?

    0 Tocaram 0 Ainda não

    Grave um vídeo tocando This House Is On Fire e nos envie!

    00:00 / 00:00
    outros vídeos desta música
    repetir qualidade Automático
    Outros vídeos desta música
    00:00 / 00:00
    Automático
    OK