Cifra Club

Aprenda

T.N.T.

AC/DC

Tablatura: Principal (guitarra)
tono: G
Intro: (Riff 1)
Hoy

Primeira Parte:
(Riff 1)
See me ride out of the sunset
On your color TV screen
Out for all that I can get
If you know what I mean
Women to the left of me
And women to the right
Ain't got no gun
Ain't got no knife
Don't you start no fight

Refrão:
(Riff 2)
'Cause I'm TNT, I'm dynamite
TNT, and I'll win the fight
TNT, I'm a power load
TNT, watch me explode

(Riff 1)

Primeira Parte com variação na letra:
(Riff 1)
I'm dirty, mean and mighty unclean
I'm a wanted man
Public enemy number one
Understand?
So lock up your daughter
Lock up your wife
Lock up your back door
Run for your life
The man is back in town
Don't you mess me 'round

Refrão: (Riff 2)
'Cause I'm TNT, I'm dynamite
TNT and I'll win the fight
TNT, I'm a power load
TNT, watch me explode

(Riff 1)
Solo:

E|-------------3-2-0--------------------------------
B|-------------------3-2-0--------------------------
G|2b4~---2b4~--------------3-0-----0----------------
D|-----------------------------2-0------------------
A|--------------------------------------------------
E|-----------------------------------12/------------

E|---------12---------------------------------------
B|15b17~------15p12-----12--------------------------
G|-------------------14----14p12----14----12~-------
D|-------------------------------12----12-----------
A|--------------------------------------------------
E|--------------------------------------------------

E|--------------------------12----------------------
B|--------12-15p12-12-12-12----12--15b17~-----------
G|14b16~--------------------------------------------
D|--------------------------------------------------
A|--------------------------------------------------
E|--------------------------------------------------

E|12-15p12----12------------------------------------
B|---------15----15p12----12------------------------
G|---------------------14----14p12----14----12~-----
D|---------------------------------14----14---------
A|--------------------------------------------------
E|--------------------------------------------------

E|-----------------17b19~---------------------------
B|--------------------------------------------------
G|--------------------------------------------------
D|14-12-14-14~--------------------------------------
A|--------------------------------------------------
E|--------------------------------------------------

Refrão:
TNT, hey, hey, hey
TNT, hey
I'm dynamite (Hey, hey)
TNT, hey
And I'll win the fight (Hey, hey)
TNT, hey
I'm a power load (Hey, hey)
TNT
Watch me explode
E  F  F#  G  G#  A  A#  B
C  C#  D  D#  E  F  F# G

E|--------------------------------------------------
B|5------6-------7-------8------9------10-----11----
G|7b9----8b10----9b11----10b12--11b13--12b14--13b15-
D|--------------------------------------------------
A|--------------------------------------------------
E|--------------------------------------------------

E|--------------------------------------------------
B|12----13----14----15----16----17------------------
G|14b16-15b17-16b18-17b19-18b20-19b21...------------
D|-------------------------------------------2------
A|-------------------------------------------2------
E|-------------------------------------------0------
Composição de Angus Young / Bon Scott / Malcolm Young
Colaboración y revision:
  • Tarsius Lima
  • Renan Gonçalves
  • Victor Westphal
12.872 reproducciones
  • Simplificar cifra
    • ½ Tono
    • A
    • Bb
    • B
    • C
    • Db
    • D
    • Eb
    • E
    • F
    • F#
    • G
    • Ab
  • Adicionar à lista

    0 comentarios

    Ver todos os comentários

    ¿Conseguiste tocar?

    63 Tocaram 11 Ainda não

    Grave um vídeo tocando T.N.T. e nos envie!

    00:00 / 00:00
    outros vídeos desta música
    repetir qualidade Automático
    Outros vídeos desta música
    00:00 / 00:00
    Automático
    Capítulos
    • Início
    • Tocando a música
    • Configuração do Efeito
    • Acordes da Introdução e Primeira Parte
    • Tocando Introdução e Primeira Parte
    • Ensinando Riff 1
    • Tocando Refrão
    • Ensinando Refrão
    • Tocando Solo
    • Ensinando Solo
    • Acordes do Final
    • Tocando Repetições
    • Ensinando Final
    • Encerramento
    OK