Cifra Club

Aprenda

Two's Up

AC/DC

Tablatura: Principal (guitarra)
tono: F
Intro, & Chorus
E---------------------------------------------------------------------------------|
B------4-3--4-3-3^4^3--------4-3--4-3-3-4^3-------4-3-------4-3------4-3-----4-3--|
G---5--3-3--3-3------3----3--3-3--3-3-3----3------3-3-------3-3------3-3-----3-3--|
D---5---------------------3---------------------3--------5--------6-------8-------|
A---3---------------------1---------------------3--------5--------6-------8-------|
E-----------------------------------------------1--------3--------4-------6-------|

          pick the G-sting, use fingers for the B and E strings
E---------8-8-8-8-8-8-8-8-6-6-6-5-5-5-5----|
B---------8-8-8-8-8-8-8-8-6-6-6-6-6-6-6----|
G---5-----5-5-5-5-5-5-5-5-5-5-5-5-5-5-5-5--|
D---5--------------------------------------|
A---3--------------------------------------|
E------------------------------------------| repeat
rythem                  both guitars
E|---------------------||----------------------3------------||
B|---------------------||----------------------3--------3---||
G|----------5-5-5-5-5--||------5---------------0------0-----||
D|------5-5-5-5-5-5-5--||----5-----6---5---3-x-0----0-------||
A|--3-3-3-3-3-3-3-3-3--||--3-------6---5---3-x--------------||
E|---------------------||----------4---3---1-x-3------------||

E---------------------------------------------------------------------------------|
B------4-3--4-3-3^4^3--------4-3--4-3-3-4^3-------4-3-------4-3------4-3-----4-3--|
G---5--3-3--3-3------3----3--3-3--3-3-3----3------3-3-------3-3------3-3--3--3-3--|
D---5---------------------3---------------------3--------5--------6-------3-------|
A---3---------------------1---------------------3--------5--------6-------1-------|
E-----------------------------------------------1--------3--------4---------------|

E|------------------------|------------------|------------|---------------|
B|------------------------|------------------|------------|---------------|
G|---5--5--5--5---5--5--3-|-5-5-5-5--5-5-5-5-|-5-5-5-5-3--|---------------|
D|---5--5--5--5---5--5--3-|-5-5-5-5--5-5-5-5-|-5-5-5-5-3--|---------------|
A|---3--3--3--3---3--0--1-|-3-3-3-3--3-3-3-3-|-3-3-0-0-1--|--1--3---------|
E|------------------------|------------------|------------|--------1------|

RIFF                                                                            P.M . . . . . . 
E|------------------------------------------|--------------------------------------------------
B|------------------------------------------|--------------------------------------------------
G|----5-----------------------------8---8---|----5---------------------------------------------
D|----5-----3--5------5--6----6--8--8---8---|----5-------3--5-----5--6----6--8-----------------
A|----3-----3--5------5--6----6--8--6---6---|----3-------3--5-----5--6----6--8---------3<5>6---
E|----------1--3------3--4----4--6----------|------------1--3-----3--4----4--6---0-4-6---------

E|------------------------------------------|--------------------------------------------------
B|------------------------------------------|--------------------------------------------------
G|----5-----------------------------8---8---|----5-------------------------------8---8---8---8-
D|----5-----3--5------5--6----6--8--8---8---|----5-------3--5-----5--6----6--8---8---8---8---8-
A|----3-----3--5------5--6----6--8--6---6---|----3-------3--5-----5--6----6--8---6---6---6---6-
E|----------1--3------3--4----4--6----------|------------1--3-----3--4----4--6-----------------

PRE CHORUS
E|------------------------------------------------||
B|-------4---3---4---3-----------4---3---4---3----||
G|-------3---3---3---3-----------3---3---3---3----||
D|---3----------------------5---------------------||
A|---3----------------------5---------------------||
E|---1----------------------3---------------------||

Bit BEfore solo
                                               MUTE
E|---------------------------------------------------------------------------------------------|
B|-------4------4------4-----4------4----------------------------------------------------------|
G|-----5------5------5-----5------5------------------------------------------------------------|
D|---5------5------5-----5------5--------------5-5-5-5-5-5-5-5-5-5-5-5-5-5-5-5-----------------|
A|-3------3------3-----3------3----------------5-5-5-5-5-5-5-5-5-5-5-5-5-5-5-5-----------------|
E|------(4---3---1---3)------------------------3-3-3-3-3-3-3-3-3-3-3-3-3-3-3-3-----------------|

SOLO
       
E|--------------------------------------------------------------------------12-12b-------------|
B|--------------------------------------------------13b--10------------------------15-12-------|
G|--10--8--10------------7---------5----10--8--10-----------12-10---9x/-\---------------12-14--|
D|--10--8--10----7^8^9-------x-7-x------10--8--10---------------------------------------------14
A|---------------------9-----------------------------------------------------------------------|
E|---------------------------------------------------------------------------------------------|
 
  RHYTHEM 
     F                         x2                G                      x2  then F x1, G x1
*|------------------------------------------| |--------------------------------------| |-------|
*|------------------------------------------| |--------------------------------------| |-------|
*|--10--8--10----8---10--\------------------| |--12-10--12---10----12----------------| |-15-15-|
*|--10--8--10----8---10--\------------------| |--12-10--12---10----12------------3---| |-15-15-|
*|---8--6---8----6----8--\--------------3---| |--10--8--10----8----10----0-0-4-6-----| |-13-13-|
*|-----------------------------0-0-4-6------| |--------------------------------------| |-------|
Then rythem plays that other bit


E|-------------------12-15b-15^12-----------12-14-15----11-13-11---12-15b-14-12----------------|
B|---------13b~~~~~---------------12--12-13-------------------------------------14-12-13~~~~---|
G|--x\-----------------------------------------------------------------------------------------|
D|--x\-/---------------------------------------------------------------------------------------|
A|---------------------------------------------------------------------------------------------|
E|---------------------------------------------------------------------------------------------|

E|--15--17b-r-15-12----12--------15-17b--15b-15b-15-15-15-15-15-15-15-15-15-15-15-15-15-15-15--|
B|------------------15----15---15----------------------------------------17--17--17--17--17----|
G|---------------------------------------------------------------------------------------------|
D|---------------------------------------------------------------------------------------------|
A|---------------------------------------------------------------------------------------------|
E|---------------------------------------------------------------------------------------------|

tapping
    T              T                 T               T             T
E|-19-15^14^12-| |--------------| |-------------| |-----------| |----------| 
B|-------------| |-19-15^14^12--| |-------------| |--14-11^9--| |--12-7^5--| 
G|-------------| |--------------| |--14-12^-10--| |-----------| |----------| 
D|-------------| |--------------| |-------------| |-----------| |----------| 
A|-------------| |--------------| |-------------| |-----------| |----------| 
E|-------------| |--------------| |-------------| |-----------| |----------| 
 Pm. . . . . . 
E|----------------------------------------------------------10^12~~---15b--15b-15b-15b-15b-15b~~\
B|-----------4~~~~-----12b12b--9---------------10^12^13---12-----------------------------------|
G|--5--3--0-----------------------11--8~~~\----------------------------------------------------|
D|---------------------------------------------------------------------------------------------|
A|---------------------------------------------------------------------------------------------|
E|---------------------------------------------------------------------------------------------|

 END BIT            FADE IN (free time)
E|---------------3-------------------------------------------|
B|------------4----------------------------------------------|
G|---------5---------------5-5-5-5-5-5-5-5-5-5-5-5-5-5-5-5-5-|
D|------5------------------5-5-5-5-5-5-5-5-5-5-5-5-5-5-5-5-5-|
A|---3---------------------3-3-3-3-3-3-3-3-3-3-3-3-3-3-3-3-3-|
E|-----------------------------------------------------------|
Composição de Angus Young / Brian Johnson / Malcolm Young
152 reproducciones
    • ½ Tono
    • A
    • Bb
    • B
    • C
    • Db
    • D
    • Eb
    • E
    • F
    • F#
    • G
    • Ab
  • Adicionar à lista

    0 comentarios

    Ver todos os comentários

    ¿Conseguiste tocar?

    0 Tocaram 0 Ainda não

    Grave um vídeo tocando Two's Up e nos envie!

    00:00 / 00:00
    outros vídeos desta música
    repetir qualidade Automático
    Outros vídeos desta música
    00:00 / 00:00
    Automático
    OK