Cifra Club

Aprenda

War Machine

AC/DC

Tablatura: Principal (guitarra)
tono: D
   G  D  A  D  A
E|-3--2-----2-----|
B|-3--3--2--3--2--|
G|-0--2--2--2--2--|
D|-0--0--2--0--2--|
A|-2-----0-----0--|
E|-3--------------|

E|---3-0-5---------------|
B|-----------------------|
G|-----------------------|
D|-----------------------|
A|-----------------------|
E|-----------------------|

Main Riff
E|--------------|
B|--------------|
G|--------------|
D|-------2------|
A|-2-2-2-0-2----|
E|-3-0-0---0----|

Refrão
E|-----------------|
B|-----------------|
G|----------7-7-7--|
D|-7-7-7-7--7-7-7--|
A|-7-7-7-7--5-5-5--|
E|-5-5-5-5---------|
Composição de Angus Young / Malcolm Young
Colaboración y revision:
  • Gustavo Santos
  • Élison Duarte
997 reproducciones
  • Simplificar cifra
    • ½ Tono
    • A
    • Bb
    • B
    • C
    • Db
    • D
    • Eb
    • E
    • F
    • F#
    • G
    • Ab
  • Adicionar à lista

    0 comentarios

    Ver todos os comentários

    ¿Conseguiste tocar?

    4 Tocaram 0 Ainda não

    Grave um vídeo tocando War Machine e nos envie!

    00:00 / 00:00
    outros vídeos desta música
    repetir qualidade Automático
    Outros vídeos desta música
    00:00 / 00:00
    Automático
    OK