Cifra Club

What Do You Do For Money Honey

AC/DC

Cifrado: Principal (guitarra y guitarra eléctrica)
tono: E
  Intro (and Chorus):
E|---------3----------|----2--2--------------|---------3----------|
B|---------3----------|----3--3--2--2--------|---------3----------|
G|--1------0----------|----2--2--2--2--------|--1------0----------|
D|--2------0----------|----0--0--2--2--------|--2------0----------|
A|--2------2----------|----------0--0--------|--2------2----------|
E|--0------3----------|----------------------|--0------3----------|

|----2--2--------------|---------3----------|----2--2--------------|
|----3--3--2--2--------|---------3----------|----3--3--2--2--------|
|----2--2--2--2--------|--1------0----------|----2--2--2--2--------|
|----0--0--2--2--------|--2------0----------|----0--0--2--2--------|
|----------0--0--------|--2------2----------|----------0--0--------|
|----------------------|--0------3----------|----------------------|

|---------3----------|------------------|
|---------3----------|------------------|
|--1------0----------|------------------|
|--2------0----------|------------------|
|--2------2----------|------------------|
|--0------3----------|------------------|

 Verse:
|----------------------|---------------------|---------------------|
|----------------------|---------------------|---------------------|
|---9------7--------7--|------------------7--|--9------7--------7--|
|---9------7--------7--|--------5----5----7--|--9------7--------7--|
|---7------5--------4--|--------5----5----5--|--7------5--------4--|
|----------------------|--------3----2-------|---------------------|

|--------3----2--------|----------------------|---------------------|
|--------3----3--------|----------------------|--------3----3-------|
|--------0----2----7---|---9------7--------7--|--------0----2----7--|
|--------0----0----7---|---9------7--------7--|--------0----0----7--|
|--------2----0----5---|---7------5--------4--|--------2----0----5--|
|--------3---------0---|----------------------|--------3---------0--|

|---------------------|---------------------------|---------------------|
|---------------------|---------------------------|---------------------|
|--9------7--------7--|--------------------------*|--9------7--------7--|
|--9------7--------7--|--------------------------*|--9------7--------7--|
|--7------5--------4--|---------------------------|--7------5--------4--|
|--0------------------|----0----0--0--0--0-0-0-0--|--0------------------|

|--------3----2-------|---------------------|
|--------3----3-------|------------------2--|
|--------0----2-------|--9------7--------2--|
|--------0----0-------|--9------7--------2--|
|--------2----0-------|--7------5--------0--|
|--------3---------0--|--0------------------|

|-------------------------|--------------------------|
|----2--2--2--2--2--2--2--|--2--2--2--2--2--2--2--2--|
|----2--2--2--2--2--2--2--|--2--2--2--2--2--2--2--2--|
|----2--2--2--2--2--2--2--|--2--2--2--2--2--2--2--2--|
|----0--0--0--0--0--0--0--|--0--0--0--0--0--0--0--0--|
|-------------------------|--------------------------|

Solo:
E|-------------------------------------------------------------------
B|-8b10--7h9p7 5h7p5 3h5p3 1h3p1~~-----------------------------------
G|-------------------------------------------------------------------
D|-------------------------------------------------------------------
A|-------------------------------------------------------------------
E|-------------------------------------------------------------------

E|-------------------------------------------------------------------
B|-------------------------------------------------------------------
G|-5-----------------------------------------------------------------
D|---7-5-7~~~--7 5 7~~---4-5-4---------------------------------------
A|------------------------------7-5-----5-3--------------------------
E|----------------------------------8-5-----5~~----------------------

E|-------------------------------------------------------------------
B|------------8-----------5-6-8-6-5---5-6-8-6-5--5-6-8-6-5-----------
G|--------------9~~-------6-7-9-7-6---6-7-9-7-6--6-7-9-7-6-----------
D|---5/7-7~----------------------------------------------------------
A|-------------------------------------------------------------------
E|-------------------------------------------------------------------

E|---------------7.........-5........-4........----------------------
B|-5-6-8-6-5---------------------------------------------------------
G|-6-7-9-7-6---------------------------------------------------------
D|-------------------------------------------------------------------
A|-------------------------------------------------------------------
E|-------------------------------------------------------------------
E|-------------------------------------------------------------------

B|-------------------------------------------------------------------
G|-5.........--3........----2........--------------------------------
D|-------------------------------------------------------------------
A|-------------------------------------------------------------------
E|-------------------------------------------------------------------

E|--------12h15p12------12-------------------------------------------
B|-------------------15----15-12--15-12------------------------------
G|-15b17--------------------------------14-12~-----------------------
D|-------------------------------------------------------------------
A|-------------------------------------------------------------------
E|-------------------------------------------------------------------

E|-------------------------------------------------------------------
B|---------15--------15----------------------------------------------
G|--14b16------14b16------14b16r14-14-12-14~-------------------------
D|-------------------------------------------------------------------
A|-------------------------------------------------------------------
E|-------------------------------------------------------------------

E|--12---------------------------------------------------------------
B|------15-12--------------------------------------------------------
G|-------------14b16r14-12h14p12~~-----------------------------------
D|-------------------------------------------------------------------
A|-------------------------------------------------------------------
E|-------------------------------------------------------------------

E|--15b17r15-15-12~~-12-14-15-14-15-14-15-14-15-14-15~~-15~~---------
B|----------------------------------------------------------17-17~~--
G|-------------------------------------------------------------------
D|-------------------------------------------------------------------
A|-------------------------------------------------------------------
E|-------------------------------------------------------------------

E|-22b................22\1-------------------------------------------
B|-------------------------------------------------------------------
G|-------------------------------------------------------------------
D|-------------------------------------------------------------------
A|-------------------------------------------------------------------
E|-------------------------------------------------------------------
00:00 / 00:00
Otros videos de esta canción
Repetir
Otros videos de esta canción
Composición de Angus Young / Brian Johnson / Malcolm Young
Colaboración y revisión:
  • Victor Armstrong
776 exhibiciones
    • ½ Tono
    • A
    • Bb
    • B
    • C
    • Db
    • D
    • Eb
    • E
    • F
    • F#
    • G
    • Ab
  • Agregar a la lista
    00:00 / 00:00
    OK