Cifra Club

Whole Lotta Rosie

AC/DC

Cifrado: Principal (guitarra y guitarra eléctrica)
tono: D
[Intro]

E|-------------------------------|
B|-------------------------------|
G|-------------2-----------------|
D|---5---7---5-2-----------------|
A|-0-3-0-5-0-3-0-----------------|
E|-------------------------------|

[Riff 1]

E|-------------------------------|
B|-------------------------------|
G|-------------2-----------------|
D|---5---7---5-2-----------------|
A|-0-3-0-5-0-3-0-----------------|
E|-------------------------------|

Wanna tell you story
About woman I know
When it comes to lovin'
She steals the show
She ain't exactly pretty
Ain't exactly small
Fourt'two thirt'ninefiftysix
You could say she's got it all

[Riff 2]

E|-------------------------------|
B|-------------------------------|
G|-------------2-2-2-2-----------|
D|---5---7---5-2-2-2-2-----------|
A|-0-3-0-5-0-3-0-0-0-0-----------|
E|-------------------------------|

Never had a woman
Never had a woman like you
Doin' all the things
Doin' all the things you do
Ain't no fairy story
Ain't no skin and bones
But you give it all you got
Weighin' in at nineteen stone

[Pré-Refrão]

E|-------------------------------|
B|--------3-3-3------------------|
G|--------2-2-2------------------|
D|-3-3-3--0-0-0------------------|
A|-3-3-3-------------------------|
E|-1-1-1-------------------------|

You're a whole lotta woman
A whole lotta woman

[Refrão]

             A    G
Whole lotta Rosie
             A    G
Whole lotta Rosie
             A    G
Whole lotta Rosie
               (Riff 4)
And you're a whole lotta woman

[Riff 4]

E|-------------------------------|
B|-------------------------------|
G|--------------2-2-2-2----------|
D|--------------2-2-2-2----------|
A|--------------0-0-0-0----------|
E|-3-2-3-2-3-2-------------------|

[Riff 2]

E|-------------------------------|
B|-------------------------------|
G|-------------2-2-2-2-----------|
D|---5---7---5-2-2-2-2-----------|
A|-0-3-0-5-0-3-0-0-0-0-----------|
E|-------------------------------|

Honey, you can do
Do it to me all night long
Only one can turn
Only one can turn me on
All through the night-time
Right around the clock
To my surprise, Rosie never stops

[Pré-Refrão]

E|-------------------------------|
B|--------3-3-3------------------|
G|--------2-2-2------------------|
D|-3-3-3--0-0-0------------------|
A|-3-3-3-------------------------|
E|-1-1-1-------------------------|

You're a whole lotta woman
A whole lotta woman

[Refrão]
             A    G
Whole lotta Rosie
             A    G
Whole lotta Rosie
             A    G
Whole lotta Rosie
               (Riff 4)
And you're a whole lotta woman

[Riff 4]

E|-------------------------------|
B|-------------------------------|
G|--------------2-2-2-2----------|
D|--------------2-2-2-2----------|
A|--------------0-0-0-0----------|
E|-3-2-3-2-3-2-------------------|
Composición de Angus Young / Bon Scott / Malcolm Young
Colaboración y revisión:
  • Marcos Paulo
  • Cristina Senlle
3.136 vistas
  • Simplificar cifrado
    • ½ Tono
    • A
    • Bb
    • B
    • C
    • Db
    • D
    • Eb
    • E
    • F
    • F#
    • G
    • Ab
  • Agregar a la lista

    0 comentarios

    Ver todos los comentarios

    ¿Lograste tocar?

    9 Tocaron 0 Aún no

    ¡Graba un video tocando Whole Lotta Rosie y envíanoslo!

    00:00 / 00:00
    Otros videos de esta canción
    Repetir Calidad Automático
    Otros videos de esta canción
    00:00 / 00:00
    Automático
    OK