Cifra Club

Prophets

A.C. Newman

Cifrado: Principal (guitarra y guitarra eléctrica)
Selo Cifra Club: esta cifra foi revisada para atender aos critérios oficiais da nossa Equipe de Qualidade.
tono: G
(pre-chorus)
E|-----15--15--14--12--12-12--14--15-------------------------------| x3
B|-----------------------------------------------------------------|
G|-----------------------------------------------------------------|
D|-----------------------------------------------------------------|
A|-----------------------------------------------------------------|
E|-----------------------------------------------------------------|

(chorus)
E|-----15--14--15--7--8--10-----------12--10--10--8----------------|
B|-----------------------------------------------------------------|
G|-----------------------------------------------------------------|
D|-----------------------------------------------------------------|
A|-----------------------------------------------------------------|
E|-----------------------------------------------------------------|

(stand to zero)
E|---------------------12--14--14--15------------------------------|
B|-----13--15--13--------------------------------------------------|
G|-----------------------------------------------------------------|
D|-----------------------------------------------------------------|
A|-----------------------------------------------------------------|
E|-----------------------------------------------------------------|

G       D              C
I was a silent partner.
G                       D                       C
I found myself with the rabble who stood on the mount,
G        D                     C
hipshot, thinking, but not out loud:
G                 D          C
"There are too many prophets here."

(C - pre chorus riff)
( G D  C )  (chorus riff)

G          D                         C
On the unlucky side of a stab in the dark,
G                D                 C
I took it in silence, I took it to heart.
G            D                C
I carried it quietly over the wall.
G          D                 C
There were too many prophets there.

( C - pre chorus riff)
I was behind it

G      D             C
one by one by one by one
G      D             C
one by one by one by one
G         C
Stand on, zero.
G          C
Stacked on zero.
G      D             C
one by one by one by one
G      D             C
one by one by one by one

G       D                  C
I was a silent partner for once,
G         D                   C
and I had been split into two sections.
G          D                    C
Here is my heart and here is my song.
G         D                 C
There are too many prophets here.

(C - pre chorus riff)
I am divided.

G      D             C
one by one by one by one
G      D             C
one by one by one by one
G         C
Stand on, zero.
G           C
Stacked on, zero.

(bridge 4x)  E D

G       D             C
I was a silent partner,
G          D                                      C
I know the part of the forest where you shouldn't go.
G              D                    C
Now out of the woods and out in the day,
G             D                 C
I see there's too many prophets here.

G                 C
one by one by one by one
STAND, ON ZERO.
G                 C
one by one by one by one
STACKED ON ZERO.
G                 C
one by one by one by one
STAND, ON ZERO.
G                 C
one by one by one by one
STACKED ON ZERO.
G                 C
one by one by one by one
Otros videos de esta canción
    433 exhibiciones
      • ½ Tono
      • A
      • Bb
      • B
      • C
      • Db
      • D
      • Eb
      • E
      • F
      • F#
      • G
      • Ab
    • Agregar a la lista

    Afinación de cifrado

    Afinador online

      OK