Cifra Club

Envernizado

Academia da Berlinda

Cifrado: Principal (guitarra y guitarra eléctrica)
tono: Bb
Intro: Gm, F, Gm, F, Gm (2x)
 D7, Gm, D7, Gm (4x), F, Gm, (4x) Gm

Tab da Intro (pra ser usado nos versos, também):
B|-----------8-8----8--8/3--------------------------------------------|
G|----3-5-7---7-7----7-----3-3/5-8-8-8-7------7---------------5-3-2-0-|
D|-5-5-----------------------------------8-5-8--(8-8-10)---7-7--------|

Gm
Olha meu amor

venha pra cá

que eu estou
        F
minha flor
Gm        F
envernizado
               Gm
isso não vou negar

Gm
olha minha flor

venha pra cá

que eu estou
      F
meu amor
Gm       F
envernizado
                  Gm
com o jeito de dançar

D7, Gm (4x) F, Gm (4x)

Tab. do Instrumental:

E|-3-3-3-3-3-2--2-2-5-2-3-0-|
B|------------3-------------|

E|-3-3-3-3-3-2--------------|
B|------------3-4-4-1-1-----|
G|---------------------3-2--|
D|------------------------5-|

Gm
olha meu amor

venha pra cá

que eu estou
        F
minha flor
Gm        F
envernizado
               Gm
isso não vou negar


Gm
olha minha flor

venha pra cá

que eu estou
      F
meu amor
Gm       F
envernizado
                Gm
com o jeito de dançar

D7 Gm (4x), F, Gm (4x)

Fill 1: 

/G|-0-3-2-0--0-3-2-0-5---|
D|---------3-----------5-|

Fill 2 (Envernizado... Envernizado...):

G|-0-3-2-0--0-2-0|
D|--------3------|
00:00 / 00:00
Otros videos de esta canción
Repetir
Otros videos de esta canción
Composición de Alexandre Urêa / Gabriel / Tine
Colaboración y revisión:
  • Gabriel Carvalho
  • Raul guimaraes
21 exhibiciones
    • ½ Tono
    • A
    • Bb
    • B
    • C
    • Db
    • D
    • Eb
    • E
    • F
    • F#
    • G
    • Ab
  • Agregar a la lista
    00:00 / 00:00
    OK