Cifra Club

Different

Acceptance

Cifrado: Principal (guitarra y guitarra eléctrica)
tono: D
Standard EADGBe Tuning
-*this is how I play it.. so.. check it out.

Intro- Gtr 1,2 distortion
E|--0-0-0-0-0-0-0-0-0-0--0-0-0-0-0-0-0-0-0-0--0-0-0-0-0-0-0-0-0-0--|
B|--3-3-3-3-3-3-3-3-3-3--3-3-3-3-3-3-3-3-3-3--3-3-3-3-3-3-3-3-3-3--|
G|--2-2-2-2-2-2-2-2-2-2--4-4-4-4-4-4-4-4-4-4--2-2-2-2-2-2-2-2-2-2--|
D|--0-0-0-0-0-0-0-0-0-0--4-4-4-4-4-4-4-4-4-4--2-2-2-2-2-2-2-2-2-2--|
A|--0-0-0-0-0-0-0-0-0-0--2-2-2-2-2-2-2-2-2-2--0-0-0-0-0-0-0-0-0-0--|
E|-----------------------------------------------------------------|

E|--0-0-0-0-0-0-0-0-0-0--0~~--|
B|--3-3-3-3-3-3-3-3-3-3--0~~--|
G|--0-0-0-0-0-0-0-0-0-0--0~~--|
D|--0-0-0-0-0-0-0-0-0-0--2~~--|
A|-----------------------2~~--|
E|--3-3-3-3-3-3-3-3-3-3--0~~--|

-Verse- Piano
Bm          D       A    Bm
Tell myself, on the ride home.
              D       A        Bm
Getting tired, hating all I've known.
           D          A     Bm
Holding on, like it's all I have.
             D          A         
Count me out, when it's clear that 

G          A
I, find it hard to say.
    G            A
And you, find it hard to care.


-Chorus:
D           Bm
I wanted to see 
                 A 
Something that's different 
          G                        D
Something you said would change in me.
          Bm
Wanted to be 
         A
Anything different 
           G                   
Everything you would change in me.

*Chorus Bit*
Gtr 1 clean                                     x2
E|--------0----------0----------0----------0----||
B|------3---3------3---3------3---3------3---3-o||
G|----2----------4----------2----------0--------||
D|--0----------4----------2----------0----------||
A|------------------------0--------------------o||
E|-----------------------------------3----------||
Gtr 2 clean                                     ||
E|--0~~--(0)---0~~--(0)---0~~--(0)---0~~--(0)---||
B|--3~~--(3)---3~~--(3)---3~~--(3)---3~~--(3)--o||
G|--2~~--(2)---4~~--(4)---2~~--(2)---0~~--(0)---||
D|--0~~--(0)---4~~--(4)---2~~--(2)---0~~--(0)---||
A|-------------2~~--(2)---0~~--(0)-------------o||
E|-----------------------------------3~~--(3)---||

Verse-
Got this way up front but never true,

God im wrong it's just the way I am,

Crashing down any chance of it,

Caving in any chance that you,
Gtr 1 clean                           x4
E|------------------------------------||
B|--8-8-8-8-8-8--x-x--3-3-3-3-3--x-x-o||
G|--9-9-9-9-9-9--x-x--4-4-4-4-4--x-x--||
D|---------------x-x-------------x-x--||
A|--7-7-7-7-7-7--x-x--2-2-2-2-2--x-x-o||
E|------------------------------------||
Gtr 2 clean                           ||
E|--1-1-1-1-1-0-0-0-0-0-0-0-0-0--x-x--||
B|--2-2-2-2-2-2-2-2-2-2-0-0-0-0--x-x-o||
G|--3-3-3-3-3-3-3-3-3-3-0-0-0-0--x-x--||
D|--0-0-0-0-0-0-0-0-0-0-2-2-2-2--x-x--||
A|----------------------2-2-2-2------o||
E|----------------------0-0-0-0-------||

D         Bm 
Can see inside of me,
A           G            D
And I, I'll know what to say,
     Bm    A         G
It's fine this isn't hollywood,
D       E
So fine getting in your way...

Chorus-
Gtr 1,2 distortion
E|--0-0-0-0-0-0-0-0-0-0--0-0-0-0-0-0-0-0-0-0--0-0-0-0-0-0-0-0-0-0--|
B|--3-3-3-3-3-3-3-3-3-3--3-3-3-3-3-3-3-3-3-3--3-3-3-3-3-3-3-3-3-3--|
G|--2-2-2-2-2-2-2-2-2-2--4-4-4-4-4-4-4-4-4-4--2-2-2-2-2-2-2-2-2-2--|
D|--0-0-0-0-0-0-0-0-0-0--4-4-4-4-4-4-4-4-4-4--2-2-2-2-2-2-2-2-2-2--|
A|--0-0-0-0-0-0-0-0-0-0--2-2-2-2-2-2-2-2-2-2--0-0-0-0-0-0-0-0-0-0--|
E|-----------------------------------------------------------------|
                         x2
E|--0-0-0-0-0-0-0-0-0-0--||
B|--3-3-3-3-3-3-3-3-3-3-o||
G|--0-0-0-0-0-0-0-0-0-0--||
D|--0-0-0-0-0-0-0-0-0-0--||
A|----------------------o||
E|--3-3-3-3-3-3-3-3-3-3--||

D           Bm
I wanted to see 
                 A 
Something that's different 
          G                        D
Something you said would change in me.
          Bm
Wanted to be 
         A
Anything different 
           G                   
Everything you would change in me.

Solo- Guitar/Piano
**I don't really know it yet..**
-but the chorus is played under it.

Bridge- Piano
I'm taking a chance,
              
This could be different,
 
This could be all I'm waiting for,

Gtr 1 clean
E|--------0----------0----------0----------0----||
B|------3---3------3---3------3---3------3---3-o||
G|----2----------4----------2----------0--------||
D|--0----------4----------2----------0----------||
A|------------------------0--------------------o||
E|-----------------------------------3----------||
Gtr 2 clean                                     ||
E|--0~~--(0)---0~~--(0)---0~~--(0)---0~~--(0)---||
B|--3~~--(3)---3~~--(3)---3~~--(3)---3~~--(3)--o||
G|--2~~--(2)---4~~--(4)---2~~--(2)---0~~--(0)---||
D|--0~~--(0)---4~~--(4)---2~~--(2)---0~~--(0)---||
A|-------------2~~--(2)---0~~--(0)-------------o||
E|-----------------------------------3~~--(3)---||
Taking a chance,
              
This could be different,
              
This could be all im waiting for...

Chorus-
Gtr 1,2 distortion
E|--0-0-0-0-0-0-0-0-0-0--0-0-0-0-0-0-0-0-0-0--0-0-0-0-0-0-0-0-0-0--|
B|--3-3-3-3-3-3-3-3-3-3--3-3-3-3-3-3-3-3-3-3--3-3-3-3-3-3-3-3-3-3--|
G|--2-2-2-2-2-2-2-2-2-2--4-4-4-4-4-4-4-4-4-4--2-2-2-2-2-2-2-2-2-2--|
D|--0-0-0-0-0-0-0-0-0-0--4-4-4-4-4-4-4-4-4-4--2-2-2-2-2-2-2-2-2-2--|
A|--0-0-0-0-0-0-0-0-0-0--2-2-2-2-2-2-2-2-2-2--0-0-0-0-0-0-0-0-0-0--|
E|-----------------------------------------------------------------|

E|--0-0-0-0-0-0-0-0-0-0--||--0~~~--|
B|--3-3-3-3-3-3-3-3-3-3-o||--0~~~--|
G|--0-0-0-0-0-0-0-0-0-0--||--0~~~--|
D|--0-0-0-0-0-0-0-0-0-0--||--2~~~--|
A|----------------------o||--2~~~--|
E|--3-3-3-3-3-3-3-3-3-3--||--0~~~--|

D           Bm
I wanted to see 
                 A 
Something that's different 
          G                        D
Something you said would change in me.
          Bm
Wanted to be 
         A
Anything different 
           G                   
Everything you would change in me.

Gtr 1 clean                           x4
E|------------------------------------||
B|--8-8-8-8-8-8--x-x--3-3-3-3-3--x-x-o||
G|--9-9-9-9-9-9--x-x--4-4-4-4-4--x-x--||
D|---------------x-x-------------x-x--||
A|--7-7-7-7-7-7--x-x--2-2-2-2-2--x-x-o||
E|------------------------------------||
Gtr 2 clean                           ||
E|--1-1-1-1-1-0-0-0-0-0-0-0-0-0--x-x--||
B|--2-2-2-2-2-2-2-2-2-2-0-0-0-0--x-x-o||
G|--3-3-3-3-3-3-3-3-3-3-0-0-0-0--x-x--||
D|--0-0-0-0-0-0-0-0-0-0-2-2-2-2--x-x--||
A|----------------------2-2-2-2------o||
E|----------------------0-0-0-0-------||

00:00 / 00:00
Otros videos de esta canción
Repetir
Otros videos de esta canción
Compositor no encontrado.
43 vistas
    • ½ Tono
    • A
    • Bb
    • B
    • C
    • Db
    • D
    • Eb
    • E
    • F
    • F#
    • G
    • Ab
  • Agregar a la lista

    0 comentarios

    Ver todos los comentarios

    ¿Lograste tocar?

    0 Tocaron 0 Aún no

    ¡Graba un video tocando Different y envíanoslo!

    00:00 / 00:00
    OK