Cifra Club

Gloryus

Acceptance

Cifrado: Principal (guitarra y guitarra eléctrica)
tono: Bb
Hello My Name is Bone. I just figured out this and its really easy! looks tough but 
isnt. hope you enjoy it!

Slide----> /

Intro:
E|-11~-10~-18~--11-10-18-----------------11~--10~--18~--11-10-18-----------|
B|------------11----------15-16-11~--16-15-------------11--------15-16-20--|
G|---------------------------------15------------------------------------20|
D|-------------------------------------------------------------------------|
A|-------------------------------------------------------------------------|
E|-------------------------------------------------------------------------|

Verse: Do 2x's

E|-11~-10~-18~--11-10-18-----------------11~--10~--18~--11-10-18-----------|
B|------------11----------15-16-11~--16-15-------------11--------15-16-20--|
G|---------------------------------15------------------------------------20|
D|-------------------------------------------------------------------------|
A|-------------------------------------------------------------------------|
E|-------------------------------------------------------------------------|

Chorus: 2x's
E|-------------------------------------------------------------------------|
B|-------------------------------------------------------------------------|
G|---8-15---7/8----15-7~---------------------------------------------------|
D|---8-15---7/8-13-15-7~-8~------------------------------------------------|
A|---6-13---5/6-13-13-5~-8~------------------------------------------------|
E|--------------11-------6~------------------------------------------------|

Verse #2: 14x's

E|-------------------------------------------------------------------------|
B|-------------------------------------------------------------------------|
G|-------------------------------------------------------------------------|
D|----5---8---5---8---5---8---5---8---5---8---5---8---5---8---5---8--------|
A|--6---6---6---6---6---6---6---6---6---6---6---6---6---6---6---6----------|
E|-------------------------------------------------------------------------|

E|-------------------------------------------------------------------------|
B|-------------------------------------------------------------------------|
G|-------------------------------------------------------------------------|
D|----5---8---5---8---5---8---5---8---5---8---5----------------------------|
A|--6---6---6---6---6---6---6---6---6---6---6---6--------------------------|
E|-------------------------------------------------------------------------|

Chorus: 2x's
E|-------------------------------------------------------------------------|
B|-------------------------------------------------------------------------|
G|---8-15---7/8----15-7~---------------------------------------------------|
D|---8-15---7/8-13-15-7~-8~------------------------------------------------|
A|---6-13---5/6-13-13-5~-8~------------------------------------------------|
E|--------------11-------6~------------------------------------------------|

Bridge:

E|-------------------------------------------------------------------------|
B|-------------------------------------------------------------------------|
G|---8~-7~-8~----15-7---8~-7~-10~-12~-13~----------------------------------|
D|---8~-7~-8~-13-15-7-8-8~-7~-10~-12~-13~----------------------------------|
A|---6~-5~-6~-13-13-5-8-6~-5~-8~--10~-11~----------------------------------|
E|------------11------6----------------------------------------------------|

Break No Guitar

Chorus: 1x
E|-------------------------------------------------------------------------|
B|-------------------------------------------------------------------------|
G|---8-15---7/8----15-7~---------------------------------------------------|
D|---8-15---7/8-13-15-7~-8~------------------------------------------------|
A|---6-13---5/6-13-13-5~-8~------------------------------------------------|
E|--------------11-------6~------------------------------------------------|

Ending:

E|-------------------------------------------------------------------------|
B|-------------------------------------------------------------------------|
G|---8-15---7/8----15--8-15-7/8----15-7~----8-15-7/8--8-10~-8~-------------|
D|---8-15---7/8-13-15--8-15-7/8-13-15-7~-8~-8-15-7/8--8-10~-8~-------------|
A|---6-13---5/6-13-13--6-13-5/6-13-13-5~-8~-6-13-5/6--6-8~--6~-------------|
E|--------------11--------------11-------6~--------------------------------|
00:00 / 00:00
Otros videos de esta canción
Repetir
Otros videos de esta canción
Compositor no encontrado.
18 vistas
    • ½ Tono
    • A
    • Bb
    • B
    • C
    • Db
    • D
    • Eb
    • E
    • F
    • F#
    • G
    • Ab
  • Agregar a la lista

    0 comentarios

    Ver todos los comentarios
    00:00 / 00:00
    OK