Cifra Club

Graveflower

Acid Bath

Cifrado: Principal (guitarra y guitarra eléctrica)
tono: C
the intro is mostly bass it's something like this

c----3--3-6-5-3--3-6-5-3--3-6-5-3-6b

there is some guitar in intro i can't figure it out but know most of the song so here it 
drop d tuning.

(ghost of a pale girl)distorted

verse 1

---------------------------------------------------------------------|
---------------------------------------------------------------------|
---------------------------------------------------------------------|
---------------------------------------------------------------------|
-3--3-3-1-3--3-3-1-3--3-3-1-6-5-3--3--3-3-1-3--3-3-1-3--3-3-1-6-8-6--|
-3--3-3-1-3--3-3-1-3--3-3-1-6-5-3--3--3-3-1-3--3-3-1-3--3-3-1-6-8-6--|

-----------------------------------|
-----------------------------------|
-----------------------------------|
-----------------------------------|
-3--3-3-1-3--3-3-1-3--3-3-1-6-5-3--|
-3--3-3-1-3--3-3-1-3--3-3-1-6-5-3--|    back to intro part

verse 2

(like murder)                       (earth and sky) (and death beside me)
             ---------------------------------------------------------------|
             ---------------------------------------------------------------|
             -2h3--2h3--2h3-------------------------------------------2h3---| x3
             ---------------------------------------------------------------|
             ---------------------------------------------------------------|
             ---------------------------------------------------------------|

--------------------------------------------------------------------|
--------------------------------------------------------------------|
--------------------------------------------------------------------|
--------------------------------------------------------------------|
-3--3-3-1-3--3-3-1-3--3-3-1-6-5-3--3--3-3-1-3--3-3-1-3--3-3-1-6-8-6-|
-3--3-3-1-3--3-3-1-3--3-3-1-6-5-3--3--3-3-1-3--3-3-1-3--3-3-1-6-8-6-|


(dust in your skull)

verse 3 x2
------------------------------------------------------------------------|
------------------------------------------------------------------------|
------------------------------------------------------------------------|
-----------------------------------63----63----63-------63--63--63------|
--------------------------------------------------1-5-------------6-8-6-|
-3--3-3-1-3--3-3-1-3--3-3-1-6-5-33----33----33----1-5-33--33--33--6-8-6-|


verse 4 x2

(reptiles awake)
             --------------------------|
             --------------------------|
             --------------------------|
             --------------------------|
             3-1--1-1-1-1-1-6-5-3------|
             3-1--1-1-1-1-1-6-5-3------|

solo
----------------------------------------------------------------------------|
----------------------------------------------------------------------------|
----------------------------------------------------------------------------|
----------------------------------------------------------------------------|
-8--8-10--10-11--11-11-10-8-7--7-7--7-7-7--sl-4-3-1-3-3h4o3-3-3h4o3-3-3h4o3-|
----------------------------------------------------------------------------|

-----------------------------------------------------------------------|
-----------------------------------------------------------------------|
-----------------------------------------------------------------------|
----------------------8-8-10-10sL17sL10--10sL17SL10--10SL17-11-10------|
--3-1-3-8-6--3h4o3r~~~--------------------------------------------8r~~-|
-----------------------------------------------------------------------|

----------------------------------------|
----------------------------------------|
----------------------------------------|
----------------------------------------|
--4-3-1-3-3-3h4o3-3-3h4o3-3-3h4o3-6-4-3-|
----------------------------------------|

from here on out it's just verse 1,2,and 4 in diffrent orders any comments,
critisism, or corrections send to * the songs fairly
simple and easy to put together if you know may have miss heard some notes
or note heard a few but for the most part it sounds correct.
00:00 / 00:00
Otros videos de esta canción
Repetir
Otros videos de esta canción
Composición de Acid Bath
46 vistas
    • ½ Tono
    • A
    • Bb
    • B
    • C
    • Db
    • D
    • Eb
    • E
    • F
    • F#
    • G
    • Ab
  • Agregar a la lista

    0 comentarios

    Ver todos los comentarios

    ¿Lograste tocar?

    0 Tocaron 0 Aún no

    ¡Graba un video tocando Graveflower y envíanoslo!

    00:00 / 00:00
    OK