Cifra Club

Meus Dias

Acustico D3

Cifrado: Principal (guitarra y guitarra eléctrica)
tono: G
(intro)
                       C               C
E|------------------------------------------------|
B|------------------------------------------------|
G|-----0-2-2h4p2p0--------------------------------|
D|---0--------------------------------------------|
A|------------------------------------------------|
E|------------------------------------------------|

                       Em              D
E|------------------------------------------------|
B|------------------------------------------------|
G|-----0-2-2h4p2p0--------------------------------|
D|---0--------------------------------------------|
A|------------------------------------------------|
E|------------------------------------------------|

(parte 1)
                 C
Seus dias vou buscar
            Em    D
O que vou fazer
              C
Se não me aceitar
            Em    D
Não quero viver
            C
Mas tempos atrás
           Em     D
Eu vivi sozinho
           C
Até você chegar
            Em    D
E aliviar o fri...o

(pré refrão)
Em            D/F#
Passo o tempo pensando
C
Em como te ter
Em          D/F#
E quando chegar a hora
C
Quero só você

(refrão 2x)
G          D/F#
...Me basta, um sorriso
Em              C
Pra eu ganhar o dia
G           D/F#
...Me abraça agora
     Em         C        Em D/F#            C      D
E me trás a alegria de viveeeeer......de viveeeer

(intro 2x)
(repete tudo)
00:00 / 00:00
Otros videos de esta canción
Repetir
Otros videos de esta canción
Composición de Acústico D3
Colaboración y revisión:
  • Acústico D3
26 vistas
    • ½ Tono
    • A
    • Bb
    • B
    • C
    • Db
    • D
    • Eb
    • E
    • F
    • F#
    • G
    • Ab
  • Agregar a la lista

    0 comentarios

    Ver todos los comentarios

    ¿Lograste tocar?

    1 Tocaron 0 Aún no

    ¡Graba un video tocando Meus Dias y envíanoslo!

    00:00 / 00:00
    OK