Cifra Club

It's All Your Hands

Adam Gontier

Cifrado: Principal (guitarra y guitarra eléctrica)
tono: G
Verso:

E|-----------------------------2------------------------------------|
B|-----2-----------------------3------------------------------------|
G|-----2----------1------------2------------1-----------------------|
D|-----2----------2-------------------------2-----------------------| 2x
A|----------------2-------------------------2-----------------------|
E|------------------------------------------------------------------|

Reach for my hand, as you fall in the dark. Imprinted on me, you have left your mark. 
I wanna keep you safe, and run to where you are. Lost out in the sea, I will be your arc. 

E|----------------------------2---------------------------------|
B|----------------------------3---------------------------------|
G|----------------------------2--------------1------------------|
D|-------------------------------------------2------------------|
A|-------------------------------------------2------------------|
E|--------------------------------------------------------------|
                          I will be your arc...
Refrão:

D|-----2-----------------------4-------------2------------------------|
A|-----3-----------------------5-------------2------------------------|
F|-----2----------1------------6-------------2------------------------|
C|----------------2------------6-------------4------------------------| 3x
G|----------------2------------4-------------4------------------------|
C|-----------------------------4-------------2------------------------| 

Take the sky and take the land,
Take the moon and the stars, 
It's all in your hands.
All of my soul 
It feels so empty  

E|-----2------------------------------------------------------------|
B|-----3-----------------------2------------------------------------|
G|-----2----------1------------2------------------------------------|
D|----------------2------------2------------------------------------|
A|----------------2-------------------------------------------------|
E|------------------------------------------------------------------|

But this hole in my heart feels so heavy. 

Composición de Adam Gontier
Colaboración y revisión:
  • Paulo Henrique
12 vistas
    • ½ Tono
    • A
    • Bb
    • B
    • C
    • Db
    • D
    • Eb
    • E
    • F
    • F#
    • G
    • Ab
  • Agregar a la lista

    0 comentarios

    Ver todos los comentarios

    ¿Lograste tocar?

    0 Tocaron 0 Aún no

    ¡Graba un video tocando It's All Your Hands y envíanoslo!

    00:00 / 00:00
    Otros videos de esta canción
    Repetir Calidad Automático
    Otros videos de esta canción
    00:00 / 00:00
    Automático
    OK