Cifra Club

Youll Never Walk Alone

Addict

Cifrado: Principal (guitarra y guitarra eléctrica)
Selo Cifra Club: esta cifra foi revisada para atender aos critérios oficiais da nossa Equipe de Qualidade.
tono: A
"walk on(x2)" "with hope" "in your head"
E|------------| I-----------I---------------|I
B|------------| I-----------I---------------|I
G|------------| I-----------I---------------|I
D|------------| I-7---------I-9-------------|I
A|-7----------| I-5---------I-7-------------|I
E|-5----------| I-----------I---------------|I


"and you'll never walk alone"(listen to the song how did they played & sing)
E|-----------------------------| I
B|-----------------------------| I
G|-----------------------------| I
D|---7-9-----------------------| I
A|-7-5-7-----------------------| I
E|-5---------------------------| I

"you'll never""walk""alone"
E|-------------| I----I--------|I
B|-------------| I----I--------|I
G|-------------| I----I--------|I
D|-------------| I-7--I--------|I
A|-7-----------| I-5--I-7------|I
E|-5-----------| I----I-5------|I
Otros videos de esta canción
    1 exhibiciones
      • ½ Tono
      • A
      • Bb
      • B
      • C
      • Db
      • D
      • Eb
      • E
      • F
      • F#
      • G
      • Ab
    • Agregar a la lista

    Afinação da cifra

    Afinador online

      Ops (: Contenido disponible solo en portugués.
      OK