Cifra Club

Million Years Ago

Adele

Tablatura: Principal (guitarra)
Tom: E
Intro:

C#m  B  F#m/A  G#m7(11)  C#m

Dedilhado Intro:

  C#m    B   F#m/A  G#m7(11)  C#m
E|------------------------------------------|
B|-5-----4-----2---------------5------------|
G|--------------------4--------6------------|
D|-6-----4-----4------4--------6------------|
A|-4-----2-----0---------------4------------|
E|--------------------4---------------------|

Primeira Parte – Primeira Estrofe:

        F#m7           B7
I only wanted to have fun
              E7M             A9
Learning to fly, learning to run
          F#m7             G#7
I let my heart decide the way
            C#m7
When I was young

Primeira Parte – Primeira Estrofe:

Parte 1

   F#m7          B7
E|------------------------------------------|
B|-------2--------------4-------------------|
G|---2-----2---2----2-----2---4-------------|
D|-----2-----2--------4-----4---------------|
A|----------------2-------------------------|
E|-2----------------------------------------|

Parte 2

   E7M            A9
E|------------------------------------------|
B|-------9--------------2-------------------|
G|---8-----8---8----4-----4---4-------------|
D|-----9-----9--------2-----2---------------|
A|-7--------------0-------------------------|
E|------------------------------------------|

Parte 3

   F#m7           G#7
E|------------------------------------------|
B|-------2--------------4-------------------|
G|---2-----2---2----5-----5---5-------------|
D|-----2-----2--------4-----4---------------|
A|------------------------------------------|
E|-2--------------4-------------------------|

Parte 4

   C#m7                   C#7
E|------------------------------------------|
B|-------5------------5--------6------------|
G|---4-----4---4----4---4----4---4----------|
D|-----6-----6------------------------------|
A|-4--------------4--------4----------------|
E|------------------------------------------|

Primeira Parte – Segunda Estrofe:

       C#7   F#m7              B7
Deep down I must have always known
                 E7M        A9
That is would be inevitable
              F#m7              G#7
To earn my stripes I'd have to pay
            (C#m7  B  A9) 3x  G#7
And bear my soul

Primeira Parte – Segunda Estrofe:

Parte 1

   F#m7          B7
E|------------------------------------------|
B|-------2--------------4-------------------|
G|---2-----2---2----2-----2---4-------------|
D|-----2-----2--------4-----4---------------|
A|----------------2-------------------------|
E|-2----------------------------------------|
Parte 2

   E7M            A9
E|------------------------------------------|
B|-------9--------------2-------------------|
G|---8-----8---8----4-----4---4-------------|
D|-----9-----9--------2-----2---------------|
A|-7--------------0-------------------------|
E|------------------------------------------|

Parte 3

   F#m7           G#7
E|------------------------------------------|
B|-------2--------------4-------------------|
G|---2-----2---2----5-----5---5-------------|
D|-----2-----2--------4-----4---------------|
A|------------------------------------------|
E|-2--------------4-------------------------|

Parte 4 (3x)

   C#m7             B        A9
E|------------------------------------------|
B|-----5-----5----------4--------2----------|
G|---4-----4-----5----4---4----4---4--------|
D|------------------------------------------|
A|-4-----4-----4----2--------0--------------|
E|------------------------------------------|

Parte 5

   G#7
E|------------------------------------------|
B|-----4-----4----------4-----4-------------|
G|-----5-----5----------5-----5-------------|
D|---4-----4-----4----4-----4-----4---------|
A|------------------------------------------|
E|-4-----4-----4----4-----4-----4-----------|

Refrão:

            F#m7        B7
I know I'm not the only one
        E7M                     A9
Who regrets the things they've done
                  F#m7           G#7
Sometimes I just feel it's only me
                        C#m7
Who can't stand the reflection

That they see

   C#7          F#m7          B7
I wish I could live a little more
                 E7M               A9
Look up to the sky, not just the floor
                F#m7             G#7
I feel like my life is flashing by
               C#m7
And all I can do is watch and cry

   C#7     F#m7             B7
I miss the air, I miss my friends
           E7M                A9
I miss my mother, I miss it when
            F#m7          G#7
Life was a party to be thrown
                
But that was 
   C#m  B    F#m/A  G#m7(11)  C#m
A mi__llion years   a________go

C#m  B   F#m/A  G#m7(11)  C#m

Refrão – Primeira e Segunda Estrofe:

Parte 1

   F#m7          B7
E|------------------------------------------|
B|-------2--------------4-------------------|
G|---2-----2---2----2-----2---4-------------|
D|-----2-----2--------4-----4---------------|
A|----------------2-------------------------|
E|-2----------------------------------------|

Parte 2

   E7M            A9
E|------------------------------------------|
B|-------9--------------2-------------------|
G|---8-----8---8----4-----4---4-------------|
D|-----9-----9--------2-----2---------------|
A|-7--------------0-------------------------|
E|------------------------------------------|

Parte 3

   F#m7           G#7
E|------------------------------------------|
B|-------2--------------4-------------------|
G|---2-----2---2----5-----5---5-------------|
D|-----2-----2--------4-----4---------------|
A|------------------------------------------|
E|-2--------------4-------------------------|

Parte 4

   C#m7                   C#7
E|------------------------------------------|
B|-------5------------5--------6------------|
G|---4-----4---4----4---4----4---4----------|
D|-----6-----6------------------------------|
A|-4--------------4--------4----------------|
E|------------------------------------------|

Refrão – Terceira Estrofe:

Parte 1

   F#m7          B7
E|------------------------------------------|
B|-------2--------------4-------------------|
G|---2-----2---2----2-----2---4-------------|
D|-----2-----2--------4-----4---------------|
A|----------------2-------------------------|
E|-2----------------------------------------|

Parte 2

   E7M            A9
E|------------------------------------------|
B|-------9--------------2-------------------|
G|---8-----8---8----4-----4---4-------------|
D|-----9-----9--------2-----2---------------|
A|-7--------------0-------------------------|
E|------------------------------------------|

Parte 3

   F#m7           G#7
E|------------------------------------------|
B|-------2--------------4-------------------|
G|---2-----2---2----5-----5---5-------------|
D|-----2-----2--------4-----4---------------|
A|------------------------------------------|
E|-2--------------4-------------------------|

Parte 4 (2x)
   
  C#m    B   F#m/A  G#m7(11)  C#m
E|------------------------------------------|
B|-5-----4-----2---------------5------------|
G|--------------------4--------6------------|
D|-6-----4-----4------4--------6------------|
A|-4-----2-----0---------------4------------|
E|--------------------4---------------------|

Segunda Parte – Primeira Estrofe:

              F#m7               B7
When I walk around all of the streets
             E7M              A9
Where I grew up and found my feet
            F#m7              G#7
They can't look me in the eye
                             C#m7
It's like they're scared of me

Segunda Parte – Segunda Estrofe:

    C#7    F#m7              B7
I try to think of things to say
        E7M           A9
Like a joke or a memory
                F#m7         G#7
But they don't recognize me now
                (C#m7  B  A9) 3x  G#7
In the light of day

Refrão Final:

            F#m7        B7
I know I'm not the only one
        E7M                     A9
Who regrets the things they've done
                  F#m7           G#7
Sometimes I just feel it's only me
             C#m7
Who never became

Who they thought they'd be

   C#7          F#m7          B7
I wish I could live a little more
                 E7M               A9
Look up to the sky, not just the floor
                F#m7             G#7
I feel like my life is flashing by
               C#m7
And all I can do is watch and cry

   C#7     F#m7             B7
I miss the air, I miss my friends
           E7M                A9
I miss my mother, I miss it when
            F#m7          G#7
Life was a party to be thrown
                
But that was 
   C#m  B    F#m/A  G#m7(11)  C#m
A mi__llion years   a________go
   C#m  B    F#m/A  G#m7(11)  C#m
A mi__llion years   a________go
reproducciones 1.305
Acordes para:
    Composição: Adele Adkins / Greg Kurstin Colaboración y revision:
    • Leandro Sandim
    • Arkaniun

    0 comentarios

    mostrar más comentarios

    ¿Conseguiste tocar?

    4 tocaron 1 aún no

    ¡Graba un vídeo tocando Million Years Ago y envianoslo!

    00:00 / 00:00
    outros vídeos desta música
    repetir qualidade Automático
    Outros vídeos desta música
    00:00 / 00:00
    Automático
    Capítulos
    • Tocando a música
    • Dicas Iniciais / Equipamentos
    • Acordes da Introdução
    • Tocando a Introdução
    • Introdução
    • Acordes da Primeira Parte: Primeira Estrofe
    • Tocando a Primeira Parte: Primeira Estrofe
    • Primeira Parte: Primeira Estrofe - Parte 1 de 4
    • Primeira Parte: Primeira Estrofe - Parte 2 de 4
    • Primeira Parte: Primeira Estrofe - Parte 3 de 4
    • Primeira Parte: Primeira Estrofe - Parte 4 de 4
    • Acordes da Primeira Parte: Segunda Estrofe
    • Tocando a Primeira Parte: Segunda Estrofe
    • Primeira Parte: Segunda Estrofe - Parte 1 de 5
    • Primeira Parte: Segunda Estrofe - Parte 2 de 5
    • Primeira Parte: Segunda Estrofe - Parte 3 de 5
    • Primeira Parte: Segunda Estrofe - Parte 4 de 5
    • Primeira Parte: Segunda Estrofe - Parte 5 de 5
    • Tocando o Refrão
    • Refrão: Primeira e Segunda Estrofe - Parte 1 de 4
    • Refrão: Primeira e Segunda Estrofe - Parte 2 de 4
    • Refrão: Primeira e Segunda Estrofe - Parte 3 de 4
    • Refrão: Primeira e Segunda Estrofe - Parte 4 de 4
    • Refrão: Terceira Estrofe - Parte 1 de 4
    • Refrão: Terceira Estrofe - Parte 2 de 4
    • Refrão: Terceira Estrofe - Parte 3 de 4
    • Refrão: Terceira Estrofe - Parte 4 de 4
    • Encerramento
    • Ficha Técnica
    OK