Cifra Club

Rumour Has It

Adele

Tablatura: Principal (guitarra)
Tom: F
Introdução 4x: Ooh, Oh!

Primeira Parte:

She, she ain't real
She ain't gonna be able to love you like I will
She is a stranger
You and I have history
Or don't you remember
Sure, she's got it all
But, baby, is that really what you want

Segunda Parte:

  Dm
Bless your soul 

You've got your head in the clouds
            Gm
You made a fool out of you

And, boy, she's bringing you down
              Bb7M
She made your      heart melt
            Am
But you're cold to the core
     Gm
Now rumour has it she ain't got your love anymore


Refrão:
           (Riff)
Rumour has it, ooh   (8x)
Rumour has it

Riff - Parte 1 de 2
        
E|-----------------------------------------------------|
B|---3-------------------------------------------------|
G|---2-------------------------------------------------|
D|---0-------------------------------------------------|
A|---0----------------5~-------------------------------|
E|-0---3/5--0--3~--3-----------------------------------|


Riff - Parte 2 de 2
E|-----------------------------------------------------|
B|---3-------------------------------------------------|
G|---2-------------------------------------------------|
D|---0-------------------------------------------------|
A|---0-------------------------------------------------|
E|-0---3/5--0--3-5-6-5~--------------------------------|
  

Variação - Riff
E|-----------------------------------------------------|
B|-----------------------------------------------------|
G|-5/7-------------------------------------------------|
D|-5/7--p5---------------------------------------------|
A|----------7-5----------------------------------------|
E|-----------------------------------------------------|
  

Repete Primeira Parte: ** Riff
 
She is half your age
But I'm guessing 
That's the reason 
That you    stayed
I heard you've been missing me
You've been telling people 
Things you shouldn't be
Like when we creep out and she ain't around
Haven't you heard the rumours

Repete a Segunda Parte:

  Dm
Bless your soul
You've got your head in the clouds
            Gm
You made a fool out of me

And, boy, you're bringing me down
             Bb7M
You made my heart melt 
         Am7
Yet I'm cold to the core
     Gm
But rumour has it 

I'm the one you're leaving her for


Repete o Refrão 8x: 
           (Riff)
Rumour has it, ooh  
           
Terceira Parte:

Dm  C#5+            F
  A____ll of these words 
  Gm            Dm
Whispered in my ear
         C#5+
Tell a story that
   F      Gm
I cannot bear to hear
Dm               Am7
  Just 'cause I said 
          F  Am7/E      Dm
It don't me__an that I meant it
 G
People say crazy things
                                     
Just 'cause I said it
       E5
Don't mean that I meant it

Just 'cause you heard it


Refrão Final:
           (Riff)
Rumour has it, ooh   (15x)

But rumour has it he's the one I'm leaving you for

( Dm )
reproducciones 2.732
Acordes para:

    0 comentarios

    mostrar más comentarios

    ¿Conseguiste tocar?

    14 tocaron 0 aún no

    ¡Graba un vídeo tocando Rumour Has It y envianoslo!

    00:00 / 00:00
    outros vídeos desta música
    repetir qualidade Automático
    Outros vídeos desta música
    00:00 / 00:00
    Automático
    Capítulos
    • Tocando a Música
    • Dicas Iniciais / Equipamentos
    • Afinação do Violão
    • Dicas para a Introdução e Primeira Parte
    • Acordes Para a Segunda Parte
    • Tocando a Intro, Primeira e Segunda Partes
    • Ensinando o Ritmo da Intro e Primeira Parte
    • Ensinando o Ritmo da Segunda Parte
    • Tocando o Riff do Refrão
    • Ensinando o Riff do Refrão
    • Tocando a Terceira Parte
    • Acordes da Terceira Parte
    • Ensinando o Ritmo da Terceira Parte
    • Encerramento
    • Ficha Técnica / Erros de Gravação
    OK