Cifra Club

Someone Like You

Adele

Tablatura: Principal (guitarra)
reproducciones 81.289
Tono: A
[Intro] A  C#m/G#  F#m D
   
   A
E|-----0--------0---------0---------0-----------------|
B|-------2--------2---------2---------2---------------|
G|---2--------2---------2---------2-------------------|
D|----------------------------------------------------|
A|-0--------0---------0---------0---------------------|
E|----------------------------------------------------|

   C#m/G#
E|----------------------------------------------------|
B|-----5---------5---------5---------5----------------|
G|-------6---------6---------6---------6--------------|
D|---6---------6---------6---------6------------------|
A|----------------------------------------------------|
E|-4---------4---------4---------4--------------------|

   F#m
E|-----2---------2---------2---------2----------------|
B|-------2---------2---------2------------------------|
G|---2---------2---------2---------2---2--------------|
D|----------------------------------------------------|
A|----------------------------------------------------|
E|-2---------2---------2---------2--------------------|

   D
E|-----2---------2---------2---------2----------------|
B|-------3---------3---------3---------3--------------|
G|---2---------2---------2---------2------------------|
D|-0---------0---------0---------0--------------------|
A|----------------------------------------------------|
E|----------------------------------------------------|

      A              C#m/G#
I've heard that you're settled down
       F#m
That you found a girl
           D
And you're   married now

A                       C#m/G#
 I've heard that your dreams came true
           F#m
Guess she gave you things
          D
I didn't give to you

A                       C#m/G#
Old friend why are you so shy?
            F#m
Ain't like you to hold back
    D
Or hide from life

[Pré-refrão]

[Parte 1 de 4]

   E                    F#m7(11)
E|-----0---------0----------0----------0--------------|
B|-------0---------0----------0----------0------------|
G|---1---------1----------2----------2----------------|
D|----------------------------------------------------|
A|----------------------------------------------------|
E|-0--------0-----------2----------2------------------|

[Parte 2 de 4]

    D
E|----------------------------------------------------|
B|------3-----------3-----------3-----------3---------|
G|----2---2-------2---2-------2---2-------2---2-------|
D|--0-----------0-----------0-----------0-------------|
A|----------------------------------------------------|
E|----------------------------------------------------|

[Parte 1 de 4]

   E                    F#m7(11)
E|-----0---------0----------0----------0--------------|
B|-------0---------0----------0----------0------------|
G|---1---------1----------2----------2----------------|
D|----------------------------------------------------|
A|----------------------------------------------------|
E|-0--------0-----------2----------2------------------|

[Parte 3 de 4]

   D                    D9(4+)
E|-----2---------2----------0---------0---------------|
B|-------3---------3----------3---------0-------------|
G|---2---------2----------1---------1-----------------|
D|-0--------0-----------0---------0-------------------|
A|----------------------------------------------------|
E|----------------------------------------------------|

[Parte 4 de 4]

   D
E|-----2---------2------------------------------------|
B|-------3---------3----------------------------------|
G|---2---------2--------------------------------------|
D|-0---------0----------------------------------------|
A|----------------------------------------------------|
E|----------------------------------------------------|

   E                           F#m7(11)      
I hate to turn up out of the blue uninvited but
D5(9)
I couldn't stay away I couldn't fight it
     E
I'd hoped you'd see my face
      F#m7(11)                       D 
And that you'd be reminded that for me 
         D9(4+) D
It isn't  ove___r

[Refrão]

   A                        E
E|-----0------------0-----------0----------0----------|
B|-------2-------------2----------0----------0--------|
G|---2-----------2------------1----------1------------|
D|----------------------------------------------------|
A|-0----------0---------------------------------------|
E|--------------------------0----------0--------------|

   F#m                      D
E|------2----------2------------2------------2--------|
B|--------2----------2------------3-------------3-----|
G|----2----------2------------2-----------2-----------|
D|--------------------------0---------0---------------|
A|----------------------------------------------------|
E|-2-----------2--------------------------------------|

A                  E            F#m  D
  Never mind I'll find someone like you
        A               E        F#m D
I wish nothing but the best for you too
       A           E          F#m        D
Don't forget me I beg I'll remember you said
              A                 E
Sometimes it lasts in love but sometimes
         F#m      D
It hurts instead
              A                 E
Sometimes it lasts in love but sometimes
         F#m      D
It hurts instead

[Segunda Parte]

A               C#m/G#
 You'd know how       time flies
     F#m
Only     yesterday
         D
was the time of our lives

         A
We were born and raised
   C#m/G#
In a summer haze
       F#m                     D
Bound by the surprise of our glory days

[Pré-refrão]

   E                           F#m7(11)      
I hate to turn up out of the blue uninvited but
D5(9)
I couldn't stay away I couldn't fight it
     E
I'd hoped you'd see my face
      F#m7(11)                       D 
And that you'd be reminded that for me 
         D9(4+) D  D4+
It isn't  ove____r

[Refrão]

A                  E            F#m  D
  Never mind I'll find someone like you
        A               E        F#m D
I wish nothing but the best for you too
       A           E          F#m        D
Don't forget me I beg I'll remember you said
              A                 E
Sometimes it lasts in love but sometimes
         F#m     D
It hurts instead

[Terceira Parte]

   Bm7(11)
E|-----0----------0----------0-----------0------------|
B|-------3----------3----------3-----------3----------|
G|---2----------2----------2-----------2--------------|
D|----------------------------------------------------|
A|-2----------2----------2-----------2----------------|
E|----------------------------------------------------|

  F#m7/C#
E|-----2---------2----------2---------2---------------|
B|-------2---------2----------2---------2-------------|
G|---2---------2----------2---------2-----------------|
D|----------------------------------------------------|
A|-4---------4----------4---------4-------------------|
E|----------------------------------------------------|

   D5
E|-----5---------5----------5---------5---------------|
B|-------3---------3----------3---------3-------------|
G|---2---------2----------2---------2-----------------|
D|----------------------------------------------------|
A|-2---------2----------2---------2-------------------|
E|----------------------------------------------------|

   Bm                    C#m7(5+)
E|-----7---------7-----------5--------5---------------|
B|-------7---------7-----------5--------5-------------|
G|---7---------7-----------4--------4-----------------|
D|----------------------------------------------------|
A|-----------------------4---------4------------------|
E|-7--------7-----------------------------------------|

   D
E|-----0--------0----------0----------0---------------|
B|-------3--------3----------3----------3-------------|
G|---2--------2----------2----------2-----------------|
D|----------------------------------------------------|
A|-2--------2----------2----------2-------------------|
E|----------------------------------------------------|

 Bm7(11)
Nothing compares no worries or cares
 F#m7/C#
Regrets and mistakes their memories make
  D5
Who would have known how
         Bm    C#m7(5+)     D
Bitter-sweet this would taste


[Refrão]

A                  E            F#m  D
  Never mind I'll find someone like you
        A               E        F#m D
I wish nothing but the best for you too
       A           E          F#m        D
Don't forget me I beg I'll remember you said
              A                 E
Sometimes it lasts in love but sometimes
         F#m     D
It hurts instead

A                  E            F#m  D
  Never mind I'll find someone like you
        A               E        F#m D
I wish nothing but the best for you too
       A           E          F#m        D
Don't forget me I beg I'll remember you said
              A                 E
Sometimes it lasts in love but sometimes
         F#m     D
It hurts instead

0 comentarios

mostrar más comentarios

¿Conseguiste tocar?

533 tocaron 13 aún no

¡Graba un vídeo tocando Someone Like You y envianoslo!

00:00 / 00:00
outros vídeos desta música
repetir qualidade Automático
Outros vídeos desta música
00:00 / 00:00
Automático
Capítulos
  • Início
  • Tocando a música
  • Acordes da Introdução ao Pré-refrão
  • Tocando da Introdução ao Pré-refrão
  • Ensinando dedilhado padrão
  • Ensinando Pré-refrão
  • Tocando Refrão
  • Ensinando Refrão
  • Acordes da Terceira Parte
  • Tocando Terceira Parte
  • Ensinando Terceira Parte
  • Encerramento
OK