Cifra Club

Someone Like You

Adele

Tab de bajo: Principal
Parte 1:

G|-----------------------------------------------------|
D|-----------------------------------------------------|
A|--0---4-------5--------------------------------------|
E|----------2------------------------------------------|

I heard that you're settled down
That you found a girl and you're married now
I heard that your dreams came true
Guess she gave you things, I didn't give to you
Old friend
Why are you so shy
It ain't like you to hold back
Or hide from the light

G|-----------------------------------------------------|
D|-----------------------------------------------------|
A|---------5-------------------------------------------|
E|--0---2----------------------------------------------|

Parte 2:
I hate to turn up out of the blue uninvited
But I couldn't stay away, I couldn't fight it
I hoped you'd see my face and that you'd be reminded
That for me, it isn't over

Refrão:
G|-----------------------------------------------------|
D|-----------------------------------------------------|
A|--0-----------5--------------------------------------|
E|-----0---2-------------------------------------------|

Never mind, I'll find someone like you
I wish nothing but the best for you, too
Don't forget me, I beg, I remember you said
Sometimes it lasts in love
But sometimes it hurts instead
Sometimes it lasts in love
But sometimes it hurts instead, yeah

(Parte 1)

(Parte 2)

(Refrão)

Parte 3:

G|-----------------------------------------------------|
D|-----------------------------------------------------|
A|--2-----5----2----4----5-----------------------------|
E|-----2-----------------------------------------------|

Nothing compares, no worries or cares
Regrets and mistakes they're memories made
Who would have known how bitter-sweet this would taste

(Refrão 2x)
reproducciones 500
Composição: Adele Adkins / Dan Wilson Colaboración y revision:
  • Henrique Barbosa

0 comentarios

mostrar más comentarios

¿Conseguiste tocar?

12 tocaron 0 aún no

¡Graba un vídeo tocando Someone Like You y envianoslo!

00:00 / 00:00
outros vídeos desta música
repetir qualidade Automático
Outros vídeos desta música
00:00 / 00:00
Automático
OK