Cifra Club

Giving In

Adema

Cifrado: Principal (guitarra y guitarra eléctrica)
Selo Cifra Club: esta cifra foi revisada para atender aos critérios oficiais da nossa Equipe de Qualidade.
tono: B
e|---------------------------------|   |------------------------------------|
B|---9---9-9-9-9-9---9---9-9-9-9-9-|   |-9-9-9-9-9-9-9-9-9-9-9-9-9----------|
G|-9---9-----------8---8-----------|7X |------------------------------------|1X
D|---------------------------------|   |------------------------------------|
A|---------------------------------|   |------------------------------------|
E|---------------------------------|   |------------------------------------|

Main Riff - both play power chords gtr.1 plays fills
e|-----------------------------------------------|
B|-----------------------------------------------| 
G|-----------------------------------------------| 
D|6-6-8h9p8--9-9-6h8p6--11-11--------11-11-------| 
A|6-6--------9-9--------11-11-6h7p6--11-11-------| 
E|4-4--------7-7---------9--9---------9--9-6h7p6-| 

(Solo - with wah) 
Gtr.1
e|---------------------------4------------| 
B|------4---------------------------------| 
G|4h6p4---6p4-4h6p4----4h6p4---6p4-3h4p3--| 
D|------------------6--------------------6|  

Otros videos de esta canción
    3.878 exhibiciones
      • ½ Tono
      • A
      • Bb
      • B
      • C
      • Db
      • D
      • Eb
      • E
      • F
      • F#
      • G
      • Ab
    • Agregar a la lista

    Afinación de cifrado

    Afinador online

      OK