Cifra Club

California

Adicts

Cifrado: Principal (guitarra y guitarra eléctrica)
Acompaña nuestras novedades de Cifra Club en español.
¡Sigue nuestro perfil en Instagram!
tono: C
Intro:
E|------------------------------------------------------------
B|------------------------------------------------------------
G|----------------------------------------------------5-------
D|---------------------5-------------------5-7-5-7-77--7-5-7/-
A|----------5-7-5-7-77--7-5-7/----3-33-5-7--------------------
E|-3-33-5-7---------------------------------------------------

E|-----------------------------------------------------
B|-----------------------------------------------------
G|-----------------------------------------------------
D|---------------------5-------------------------------
A|----------5-7-5-7-77--7-5-7/---3-33-5-7-5-3--0-0-2-0-
E|-3-33-5-7--------------------------------------------

E|-------------------------------3------------------------------
B|-------------------------------3------------------------------
G|-------------------------------4------------------------------
D|-------------------------------5------------------------------
A|--------------------------------------------------------------
E|-3-33-0-2-3-0-2-3--33-33-0-2-3---3-33-0-2-3-0-2-3-33-33-0-2-3-

Verso:

Base: G  Em (2xs)

Solo:
E|-----------------------------------------------------
B|----------------------------------------8----8--8--8-
G|----------------------------------------9-9---9--9---
D|-5~~~-----------2~~~-----5~~~-----------9--9---9--9--
A|-5~~~-----------2~~~-----5~~~-----------7------------
E|-3~~~---5-3-5/--0~~~-----3~~~---5-3-5----------------

(Refrão)

(Verso)

(Refrão)

(Bridge)

E|-----------------------------------------------------------
B|-----------------------------------------------------------
G|---------------------------------------------------3-------
D|---------------------3------------------3-5-3-5-55--5-3-5/-
A|----------3-5-3-5-55--5-3-5/---1-11-3-5--------------------
E|-1-11-3-5--------------------------------------------------

E|---------------------------------------------------
B|---------------------------------------------------
G|---------------------------------------------------
D|---------------------3-----------------------------
A|----------3-5-3-5-55--5-3-5/---1-11-3-5-3-1-----1--
E|-1-11-3-5-----------------------------------3-3--3-

E|-------------------------------3------------------------------3-
B|-------------------------------3------------------------------3-
G|-------------------------------4------------------------------4-
D|-------------------------------5------------------------------5-
A|----------------------------------------------------------------
E|-3-33-0-2-3-0-2-3--33-33-0-2-3---3-33-0-2-3-0-2-3-33-33-0-2-3---

Refrão Final:
E|------------------------------------------------------------
B|------------------------------------------------------------
G|----------------------------------------------------5-------
D|---------------------5-------------------5-7-5-7-77--7-5-7/-
A|----------5-7-5-7-77--7-5-7/----3-33-5-7--------------------
E|-3-33-5-7---------------------------------------------------
Composición de Adx
Colaboración y revisión:
  • Gabriel Vendramini
53 vistas
    • ½ Tono
    • A
    • Bb
    • B
    • C
    • Db
    • D
    • Eb
    • E
    • F
    • F#
    • G
    • Ab
  • Agregar a la lista

    0 comentarios

    Ver todos los comentarios

    ¿Lograste tocar?

    0 Tocaron 0 Aún no

    ¡Graba un video tocando California y envíanoslo!

    00:00 / 00:00
    Outros vídeos desta música
    Repetir Calidad Automático
    Outros vídeos desta música
    00:00 / 00:00
    Automático
    OK