Cifra Club

Champs-Elysees

Adicts

Cifrado: Principal (guitarra y guitarra eléctrica)
Acompaña nuestras novedades de Cifra Club en español.
¡Sigue nuestro perfil en Instagram!
tono: G
(intro)

E|------------------------------------|
B|-5--5--5--5--3--3--3----------------|
G|--5--5--5--5--4--4--5-4-2--2-2-2--2-|
D|---7--7--7--7--5--5-----------------|
A|------------------------------------|
E|------------------------------------|
     (3x)      (3x)
E|-----------|------|-3-1---1-1-|
B|------1-0--|-1-0--|-----------|
G|---------2-|----2-|-----------|
D|-2-1-2-----|------|-----------|
A|-----------|------|-----------|
E|-----------|------|-----------|

E|-1--1--1--1-------------------------------------|
B|--3--3--3--3-5--5--5--5--3--3--3----------------|
G|---4--4--4--4-5--5--5--5--4--4--5-4-2--2-2-2--2-|
D|---------------7--7--7--7--5--5-----------------|
A|------------------------------------------------|
E|------------------------------------------------|

( G  A ) (4x)

A          D
I look so debonaire
A
I haven't got a care in this
B     E            A
World, this crazy world

A          D
And I act oh so suave
A
Sophisticated, boy I've got it all
B E      A
   I'm a star

D
Dance the night away
F#m
Down in gay Paris
E
Dance the night away
       C        G
On the Champs-Elysees
D
Dance the night away
F#m
Down in gay Paris
E
Dance the night away
   C    G
Make it sleazy

A          D
I am a mystery
A
Not what I seem to be, oh
B  E           A
No, It's so Parisian.

A          D
I am a masquerade
A
Just a man-parade
B     E            A
So I dance, I dance with you, hoooo

D
Dance the night away
F#m
Down in gay Paris
E
Dance the night away
       C        G
On the Champs-Elysees
D
Dance the night away
F#m
Down in gay Paris
E
Dance the night away
   C    G
Make it sleazy

( G A )

( G D A# G ) (2x)

( G  A ) (4x)

A          D
I look so debonaire
A
I haven't got a care in this
B     E            A
World, this crazy world

A          D
You'll see my name in lights
A
One of the better sights, I'm the
B          E      A
Attraction, I'm a star.

D
Dance the night away
F#m
Down in gay Paris
E
Dance the night away
       C        G
On the Champs-Elysees
D
Dance the night away
F#m
Down in gay Paris
E
Dance the night away
   C    G
Make it sleazy

( G  A )

( G D A# G ) (6x)
Compositor não encontrado.
Colaboración y revisión:
  • Aerson Moreira
59 vistas
    • ½ Tono
    • A
    • Bb
    • B
    • C
    • Db
    • D
    • Eb
    • E
    • F
    • F#
    • G
    • Ab
  • Agregar a la lista

    0 comentarios

    Ver todos los comentarios

    ¿Lograste tocar?

    0 Tocaron 0 Aún no

    ¡Graba un video tocando Champs-Elysees y envíanoslo!

    00:00 / 00:00
    Outros vídeos desta música
    Repetir Calidad Automático
    Outros vídeos desta música
    00:00 / 00:00
    Automático
    OK