Cifra Club

My Angel

Adicts

Cifrado: Principal (guitarra y guitarra eléctrica)
Acompaña nuestras novedades de Cifra Club en español.
¡Sigue nuestro perfil en Instagram!
tono: D
G|-88888888--55555555----------------------------|
D|-88888888--55555555--66666666--88888888--------| *Intro*
A|-66666666--33333333--66666666--88888888--------|
E|---------------------44444444--66666666--------|

 *Palm Mute: ....

 "You are an angel,..."
B|--.......---.......----------------------------|
G|-88888888--55555555---.......---.......--------|
D|-88888888--55555555--66666666--88888888--------| *Verse*
A|-66666666--33333333--66666666--88888888--------|
E|---------------------44444444--66666666--------|

 "And when you bang your gong,..."
G|----------10~~-----------------|
D|-6~~~--5~-10~~-----------------| *Pre|-chorus*
A|-6~~~--5~-8~~------------------|
E|-4~~~--3~----------------------|

 "My angel, my angel,..."

G|-88888888-------------------------------------------|
D|-88888888--66666666--1010101010101010--88888888-----| *Chorus*
A|-66666666--66666666--1010101010101010--88888888-----|
E|-----------44444444--8 8 8 8 8 8 8 8---66666666-----|

Outra: 
Intro

e|---------------------------------------------------------------------
G|--7-7-7-7-7-7-7-7----------------------------------------------------
D|--7-7-7-7-7-7-7-7-9-9-9-9-9-9-9-9-5-5-5-5-5-5-5-5-7-7-7-7-7-7-7-7----
A|--5-5-5-5-5-5-5-5-9-9-9-9-9-9-9-9-5-5-5-5-5-5-5-5-7-7-7-7-7-7-7-7----
E|------------------7-7-7-7-7-7-7-7-3-3-3-3-3-3-3-3-5-5-5-5-5-5-5-5----

Riff/Solo

e|---------------------------------------------------------------------
B|-8-8-8-8-8-8-8-8-8-11-9-8-8-8-8-8-8-8-8-11-9--8-9-8-9-11-11-11-11-11-

Verse

G|--7-7-7-7-7-7-7-7----------------------------------------------------
D|--7-7-7-7-7-7-7-7-9-9-9-9-9-9-9-9-5-5-5-5-5-5-5-5-7-7-7-7-7-7-7-7----
A|--5-5-5-5-5-5-5-5-9-9-9-9-9-9-9-9-5-5-5-5-5-5-5-5-7-7-7-7-7-7-7-7----
E|------------------7-7-7-7-7-7-7-7-3-3-3-3-3-3-3-3-5-5-5-5-5-5-5-5----

Bridge

D|---5----4----2-------------------------------------------------------
A|---5----4----2-------------------------------------------------------
E|---3----2----0-------------------------------------------------------

Chorus

G|--7-7-7-7-7-7-7-7----------------------------------------------------
D|--7-7-7-7-7-7-7-7-5-5-5-5-5-5-5-5-9-9-9-9-9-9-9-9-7-7-7-7-7-7-7-7----
A|--5-5-5-5-5-5-5-5-5-5-5-5-5-5-5-5-9-9-9-9-9-9-9-9-7-7-7-7-7-7-7-7----
E|------------------3-3-3-3-3-3-3-3-7-7-7-7-7-7-7-7-5-5-5-5-5-5-5-5----

Composición de Monkey / Band
Colaboración y revisión:
  • Gabriel Nhimi
166 vistas
    • ½ Tono
    • A
    • Bb
    • B
    • C
    • Db
    • D
    • Eb
    • E
    • F
    • F#
    • G
    • Ab
  • Agregar a la lista

    0 comentarios

    Ver todos los comentarios

    ¿Lograste tocar?

    0 Tocaron 0 Aún no

    ¡Graba un video tocando My Angel y envíanoslo!

    00:00 / 00:00
    Outros vídeos desta música
    Repetir Calidad Automático
    Outros vídeos desta música
    00:00 / 00:00
    Automático
    OK