Cifra Club

Numbers

Adicts

Cifrado: Principal (guitarra y guitarra eléctrica)
tono: D
Intro Solo: 
E|---------------------|
B|---------------------|
G|---------------------|
D|---------------------|
A|--5--5--3--3--1~~----|
E|---------------------|

Intro Base:
E|---------------------------------------------------------|
B|---------------------------------------------------------|
G|--7-x-x---5-x-x------------------------------------------|
D|--7-x-x---5-x-x--8---------------------------------------|
A|--5-x-x---3-x-x--8---------------------------------------|
E|-----------------6---------------------------------------|

1, 2, 3, 4, 5, 6, 7!

E|---------------------------------------------------------|
B|---------------------------------------------------------|
G|--7-x-x---5-x-x---------------------7777777--------------|
D|--7-x-x---5-x-x-8888888-8-x-x-7-x-x-7777777--------------|
A|--5-x-x---3-x-x-8888888-8-x-x-7-x-x-5555555--------------|
E|----------------6666666-6-x-x-5-x-x----------------------|  x 2

Verso 1:
E|---------------------------------------------------------|
B|---------------------------------------------------------|
G|--7-x-x---5-x-x---------------------7777777--------------|
D|--7-x-x---5-x-x-8888888-8-x-x-7-x-x-7777777--------------|
A|--5-x-x---3-x-x-8888888-8-x-x-7-x-x-5555555--------------|
E|----------------6666666-6-x-x-5-x-x----------------------|  x2

Pre Refrão:
E|-------------------------------------------|
B|-------------------------------------------|
G|---12--------------------------------------|
D|---12--------------------------------------|
A|---10--------------------------------------|
E|-------------------------------------------|

"I dont wanna be a 1, 2, 3, 4, 5, 6, 7"

Verso 2 - 2x:
E|---------------------------------------------------------|
B|---------------------------------------------------------|
G|--7-x-x---5-x-x---------------------7777777--------------|
D|--7-x-x---5-x-x-8888888-8-x-x-7-x-x-7777777--------------|
A|--5-x-x---3-x-x-8888888-8-x-x-7-x-x-5555555--------------|
E|----------------6666666-6-x-x-5-x-x----------------------|  

Pre Refrão:
E|-------------------------------------------|
B|-------------------------------------------|
G|---12--------------------------------------|
D|---12--------------------------------------|
A|---10--------------------------------------|
E|-------------------------------------------|

"I dont wanna be no 1, 2, 3, 4, 5, 6, 7"

Refrão:
E|--------------------------------------------------------------------------|
B|--------------------------------------------------------------------------|
G|---/11-11-11-11-11-11-/11-11-11-11-11-11--7---7-7-7-7-7-7-7-7-7-7-7-7-7-7-|
D|---/11-11-11-11-11-11-/11-11-11-11-11-11--7---7-7-7-7-7-7-7-7-7-7-7-7-7-7-|
A|----/9--9--9--9--9--9--/9--9--9--9--9--9--5---5-5-5-5-5-5-5-5-5-5-5-5-5-5-|
E|--------------------------------------------------------------------------|  x4

Verso 3 - 2x:
E|---------------------------------------------------------|
B|---------------------------------------------------------|
G|--7-x-x---5-x-x---------------------7777777--------------|
D|--7-x-x---5-x-x-8888888-8-x-x-7-x-x-7777777--------------|
A|--5-x-x---3-x-x-8888888-8-x-x-7-x-x-5555555--------------|
E|----------------6666666-6-x-x-5-x-x----------------------| 

Pre Refrão:
E|-------------------------------------------|
B|-------------------------------------------|
G|---12--------------------------------------|
D|---12--------------------------------------|
A|---10--------------------------------------|
E|-------------------------------------------|

"I dont wanna be nº 1, 2, 3, 4, 5, 6, 7"

Refrão 4x:
E|--------------------------------------------------------------------------|
B|--------------------------------------------------------------------------|
G|---/11-11-11-11-11-11-/11-11-11-11-11-11--7---7-7-7-7-7-7-7-7-7-7-7-7-7-7-|
D|---/11-11-11-11-11-11-/11-11-11-11-11-11--7---7-7-7-7-7-7-7-7-7-7-7-7-7-7-|
A|----/9--9--9--9--9--9--/9--9--9--9--9--9--5---5-5-5-5-5-5-5-5-5-5-5-5-5-5-|
E|--------------------------------------------------------------------------|  

Base do solo:
E|----------------------------------------------------|
B|----------------------------------------------------|
G|-----------------------77777777777777---------------|
D|---5-5555555555--------77777777777777---------------|
A|---5-5555555555----3-5-55555555555555---------------| (4x)
E|---3-3333333333--6----------------------------------|

E|---------------------------------------------------------|
B|---------------------------------------------------------|
G|--7-x-x---5-x-x---------------------7777777--------------|
D|--7-x-x---5-x-x-8888888-8-x-x-7-x-x-7777777--------------|
A|--5-x-x---3-x-x-8888888-8-x-x-7-x-x-5555555--------------| (4x)
E|----------------6666666-6-x-x-5-x-x----------------------|  

Solo:
E|--5--3--1--0--1--0--1--0--1--0--1---|
B|----------------------------------3-|
G|------------------------------------|
D|------------------------------------|
A|------------------------------------|
E|------------------------------------|

E|----1--3-------------|
B|--3------------------|
G|---------------------|
D|---------------------|
A|---------------------|
E|---------------------|

E|--5--3--1--0--1--0--1--0--1--0--1---|
B|----------------------------------3-|
G|------------------------------------|
D|------------------------------------|
A|------------------------------------|
E|------------------------------------|

E|--5--3--1--0--1--0--1--0--1--0--1---|
B|----------------------------------3-|
G|------------------------------------|
D|------------------------------------|
A|------------------------------------|
E|------------------------------------|

E|----1--3-------------|
B|--3------------------|
G|---------------------|
D|---------------------|
A|---------------------|
E|---------------------|

E|--5--3--1--10--8--7--10~~-----------|
B|------------------------------------|
G|------------------------------------|
D|------------------------------------|
A|------------------------------------|
E|------------------------------------|

Verso 1 - 2x:
E|---------------------------------------------------------|
B|---------------------------------------------------------|
G|--7-x-x---5-x-x---------------------7777777--------------|
D|--7-x-x---5-x-x-8888888-8-x-x-7-x-x-7777777--------------|
A|--5-x-x---3-x-x-8888888-8-x-x-7-x-x-5555555--------------|
E|----------------6666666-6-x-x-5-x-x----------------------|  

Pre Refrão:
E|-------------------------------------------|
B|-------------------------------------------|
G|---11--------------------------------------|
D|---11--------------------------------------|
A|----9--------------------------------------|
E|-------------------------------------------|

"I dont wanna be a 1, 2, 3, 4, 5, 6, 7"

Refrão 3x:
E|--------------------------------------------------------------------------|
B|--------------------------------------------------------------------------|
G|---/11-11-11-11-11-11-/11-11-11-11-11-11--7---7-7-7-7-7-7-7-7-7-7-7-7-7-7-|
D|---/11-11-11-11-11-11-/11-11-11-11-11-11--7---7-7-7-7-7-7-7-7-7-7-7-7-7-7-|
A|----/9--9--9--9--9--9--/9--9--9--9--9--9--5---5-5-5-5-5-5-5-5-5-5-5-5-5-5-|
E|--------------------------------------------------------------------------|  

Final:
E|-------------------------------------------------------------------------|
B|-------------------------------------------------------------------------|
G|---/11-11-11-11-11-11-/11-11-11-11-11-11-------------------------7-------|
D|---/11-11-11-11-11-11-/11-11-11-11-11-11-------------------------7-------|
A|----/9--9--9--9--9--9--/9--9--9--9--9--9-------------------------5-------|
E|-------------------------------------------------------------------------|

"I don’t wanna be nº 1, 2, 3, 4, 5, 6, 7"
Compositor não encontrado.
Colaboración y revisión:
  • Vinícius Ramone
  • Aerson Moreira
138 vistas
    • ½ Tono
    • A
    • Bb
    • B
    • C
    • Db
    • D
    • Eb
    • E
    • F
    • F#
    • G
    • Ab
  • Agregar a la lista

    0 comentarios

    Ver todos los comentarios

    ¿Lograste tocar?

    0 Tocaron 0 Aún no

    ¡Graba un video tocando Numbers y envíanoslo!

    00:00 / 00:00
    Outros vídeos desta música
    Repetir Calidad Automático
    Outros vídeos desta música
    00:00 / 00:00
    Automático
    OK