Cifra Club

Put Yourself In My Hands

Adicts

Cifrado: Principal (guitarra y guitarra eléctrica)
Acompaña nuestras novedades de Cifra Club en español.
¡Sigue nuestro perfil en Instagram!
tono: G
Intro:
E|-----------|-----------------2---------|-----------|-------|---------0---------
B|---------1-|---------------0---0-------|-----------|-------|-------1---1-------
G|-------2---|-------2-----2-------2-----|-----------|-------|-----2-------2-----
D|-----2-----|-----2-----1-----------1---|-----------|-------|---2-----------2---
A|-0-3-------|-0-3-----2---------------2-|-------0-1-|-------|-0---------------0-
E|-----------|---------------------------|-0-1-3-----|-3-1-0-|-------------------
 |                                          2x                                 |
E|---------------1-|-----------------|-----------------|---------|---------0--------
B|-------------3---|---------------1-|-----------------|---------|-------1---1------
G|-------2---2-----|-------2-----2---|-------2-------2-|-------0-|-----2-------2----
D|-2---2---0-------|-----2-----2-----|-----2-------3---|-----2---|---2-----------2--
A|-0-3-------------|-0-3-----0-------|-0-3-------3-----|---2-----|-0--------------0-
E|-----------------|-----------------|---------1-------|-0-------|------------------
Verso:
E|-----------|-----------------2---------|-----------|-------|---------0---------
B|---------1-|---------------0---0-------|-----------|-------|-------1---1-------
G|-------2---|-------2-----2-------2-----|-----------|-------|-----2-------2-----
D|-----2-----|-----2-----1-----------1---|-----------|-------|---2-----------2---
A|-0-3-------|-0-3-----2---------------2-|-------0-1-|-------|-0---------------0-
E|-----------|---------------------------|-0-1-3-----|-3-1-0-|-------------------

Refrão 2x:
E|---------------------------------
B|---------------------------------
G|-7---9/--5---7/--------14--12-10-
D|-7-------5--------5-----------10-
A|-5---7/--3---5/---5----12--10--8-
E|------------------3--------------

Solo pós-Refrão
E|-5-5-5----5-|-55-55-----5-|------------
B|-5-5-5----5-|-55-55-----5-|------------
G|-------7b9--|-------7b9---|-10---7-----
D|------------|-------------|-10---7---7-
A|------------|-------------|--8---5---7-
E|------------|-------------|----------5-
Composición de ADX
Colaboración y revisión:
  • Gabriel Vendramini
2.028 vistas
    • ½ Tono
    • A
    • Bb
    • B
    • C
    • Db
    • D
    • Eb
    • E
    • F
    • F#
    • G
    • Ab
  • Agregar a la lista

    0 comentarios

    Ver todos los comentarios

    ¿Lograste tocar?

    0 Tocaron 1 Aún no

    ¡Graba un video tocando Put Yourself In My Hands y envíanoslo!

    00:00 / 00:00
    Outros vídeos desta música
    Repetir Calidad Automático
    Outros vídeos desta música
    00:00 / 00:00
    Automático
    OK